Oops, an error
Loading. Please wait.

Camals Mullats Bass Tab

3,988 views 15 this week
no commentswrite comment
1 2 3 4 5
please rate
add to favorites
launch autoscroll
font size
0
reset
guitar tuner
Autoscroll
slow
fast
+/-
esc
set tempo
stop
Help us to improve Ultimate-Guitar.com Take our survey!
×
Author
Camals mullats - La Gossa sorda

El baix entra al minut 1:16 acompanyant la guitarra

VERS
G ---------------------------------------------------------------|
D ---------------------------------------------------------------|
A --------------5-5----------------------------------------------|
E ----6--6--------------3-3-------1------------------------------|

ESTRIBILLO 2:01

G ---------------------------------------------------------------|
D ----------------4----5555-3-5---3333---------------------------|
A --------5---5555-5------------------53-------------------------|
E ----6666-6-----------------------------------------------------|


G ---------------------------------------------------------------|
D ---------------------------------------------------------------|
A --------5------------1------------------3----------------------|
E ----6666-6-------1111-1----333313---1111-5---------------------|


G ---------------------------------------------------------------|
D ----------------4----5555-3-5---3333---------------------------|
A --------5---5555-5------------------53-------------------------|
E ----6666-6-----------------------------------------------------|


G ---------------------------------------------------------------|
D ---------------------------------------------------------------|
A --------5------------1------------------3----------------------|
E ----6666-6-------1111-1----333313---1111-5---------------------|

VERS 2:25 Mentre cante Pirat Sound System

ESTRIBILLO 3:08

SOLO 3:31 toca la part del ESTRIBILLO

3:53 <> No se si toque el baix amb seguretat,
si voleu,
feu les notes que apareixen a continuació:

4:05 <
G ---------------------------------------------------------------|
D ---------------------------------------------------------------|
A -------------5-5-5---------------------------------------------|
E ------6-6-6---------3-3-3--1-1-1-------------------------------|

ESTRIBILLO

I acabe la cançó cantant Josep Nadal

Espere que vos agrade!;)
Salud!

http://www.lagossasorda.com
Suggest correction
Give kudos to tab author, rate the tab!
1 2 3 4 5
comments
print report bad tab
guest
You may want to rate the tab now too:
select rating
Please do not post tabs as comments. Select "correction" instead!