Oops, an error
Loading. Please wait.

Quina Calitja Tab

173 views 1 this week
no commentswrite comment
1 2 3 4 5
3 more votes to show rating
add to favorites
launch autoscroll
font size
0
reset
how to read this tab
guitar tuner
×
Best way to learn
"Quina Calitja"
Autoscroll
slow
fast
+/-
esc
set tempo
stop
Com diu Enric en la seua transcripcció, el solo
es facil de traure, aixina que l'he tret pa que
no se tingau q calfar el cap!!

|------------------------------------------------
|------------------------------------------------
|------------------------------------------------
|--9-9-9-9-9-9---9-8-------------12-11-9----9----
|--------------9-----10-9-7-9------------12------
|------------------------------------------------

|------------------------------------------------
|------------------------------------------------
|-------------------11-------11-9----------------
|---12-11-9----9-------12-12------11-------------
|-----------12-----------------------------------
|------------------------------------------------

|------------------------------------------------
|------------------------------------------------
|------   un millo de  --------------------------
|----9  X  voltes en   ----9-8-------------------
|--9---    un segon    --9----10-9-7-9-----------
|------------------------------------------------

|------------------------------------------------
|------------------------------------------------
|-----------------      ---11-------11-9---------
|---12-11-9----12- (X2) ------12-12------11~-11--
|-----------12----      -------------------------
|------------------------------------------------


Pos ale ja sta el solo açi pa q el toqueu,
esta cansoneta va dedicà al Xifo!!!
Que per cert el tinc que anar liant per a anar
a Benifairó de la Valldigna en Agost...
Suggest correction
Give kudos to tab author, rate the tab!
1 2 3 4 5
comments
print report bad tab
guest
You may want to rate the tab now too:
select rating
Wanna post a correction for this tab? Suggest correction