Oops, an error
Loading. Please wait.

Vianants Chords

158 views 3 this week
no commentswrite comment
1 2 3 4 5
please rate
add to favorites
launch autoscroll
font size
0
reset
transpose
0
reset
simplify chords
display chords
guitar tuner
Autoscroll
slow
fast
+/-
esc
set tempo
stop
Help us to improve Ultimate-Guitar.com Take our survey!
×
Author
Difficulty
intermediate
Dm       Bb             C                    
Vianants d'aquesta vida puta,
                   Dm
sense airbags laterals,
  Bb            C
i sense full de ruta.
Dm     Bb                C
Equidistants de tot i amb tot,
                    Dm
El trocet de pa més gran,
    Bb                 C
borinot el que no el vullga.
Dm   Bb           C
Vianants de pagament,
                 Dm
en peatges de ciment
   Bb             C
d'una autopista absurda.


Dm        Am              Bb  A/Bb 
Volies molar davant de la tele
Dm        Am              Bb  A/Bb 
pero per fer fugir la soletat,
F       Bb       C      B/C   B/C
com del cel a la Terra,
F       Bb       C      B/C   B/C  C/C#
has caigut al parany.

Dm     Bb               C
Hipotecats per poder viure
                   Dm
a un racó on caure morts.
   Bb                C
Viciats dins del seu cicle,
Dm      Bb             C
amb els desig de tot i més,
                     Dm                
il'lusions de creixement,
   Bb           C
de presons de vidre.


Dm        Am              Bb  A/Bb
Volies semblar un cos d'anunci
Dm        Am        Bb  A/Bb
per fer fugir la soletat.
F       Bb         C      B/C   B/C
Com del cel a la Terra,
F       Bb       C      B/C   B/C  
has caigut al parany.

  F            Dm                              Am            Bb      F
e|------------------------------------------------------------------------------|
B|------------------------------------------------------------------------------|
G|-------------7-7--7/9-9--9/10-10--10\9-9--9\----------------------------------|
D|---------------------------------------------7~-------------------------------|
A|-------------5-5--5/7-7--7/8--8----8\7-7--7\----------------------------------|
E|---------------------------------------------5~-------------------------------|

F
Radial, despertador,
Dm
semàfor, claxon, policia,
Am                                X2
anuncis, espentes, crits,
Bb        F
CocaCola, cocaina.     

  
e|------------------------------------------------------------------------------|
B|------------------------------------------------------------------------------|
G|-7-7--7/9-9--9/10-10--10\9-9--9\----------------------------------------10~---|
D|--------------------------------7~---8-8--8/10-10--10/12-12--12\10-10\7-------| X2
A|-5-5--5/7-7--7/8--8----8\7-7--7\-----------------------------------------8~---|
E|--------------------------------5~---6-6--6/8--8----8/10-10--10\8---8\5-------|


F
Radial, despertador,
Dm
semàfor, claxon, policia,
Am                                X4
anuncis, espentes, crits,
Bb        F
CocaCola, cocaina.     

e|------------------------------------------------------------------------------|
B|------------------------------------------------------------------------------|
G|-7-7--7/9-9--9/10-10--10\9-9--9\----------------------------------------10~---|
D|--------------------------------7~---8-8--8/10-10--10/12-12--12\10-10\7-------| X2
A|-5-5--5/7-7--7/8--8----8\7-7--7\-----------------------------------------8~---|
E|--------------------------------5~---6-6--6/8--8----8/10-10--10\8---8\5-------|


Bb5  F5  D5  Bb5  F5  D5  Bb5  F5  D5

Suggest correction
Give kudos to tab author, rate the tab!
1 2 3 4 5
comments
print report bad tab
guest
You may want to rate the tab now too:
select rating
Please do not post tabs as comments. Select "correction" instead!