Oops, an error
Loading. Please wait.

Atardecer Central Tab

14 views 1 this week
no commentswrite comment
1 2 3 4 5
3 more votes to show rating
add to favorites
launch autoscroll
font size
0
reset
how to read this tab
guitar tuner
Autoscroll
slow
fast
+/-
esc
set tempo
stop
Help us to improve Ultimate-Guitar.com Take our survey!
×
Este es el Intro y el Solo de esta cancion, espero que este bien y que les salga
como es... Oigan primero la cancion para darse una idea de como va...

Intro.

e||-----3-3-----3---3||-----3-3-----3---||-----0---||------1---||
B||-1-1-----1-1---1--||-0-0-----0-0---0-||---0-----||----1---1-||
G||------------------||-----------------||-0-----0-||-/2-------||
D||------------------||-----------------||---------||----------||
A||------------------||-----------------||---------||----------||
E||------------------||-----------------||---------||----------||

Solo.

e||-----||--------------------||------------------||-------------------||
B||-----||--------------------||------------------||-------------------||
G||-----||---------7--9-9/12~-||-------12-10-9----||--------12-10-9----||
D||-/7~-||-/7-9-10------------||-/7-10---------9~-||-/7-10----------7~-||
A||-----||--------------------||------------------||-------------------||
E||-----||--------------------||------------------||-------------------||

e||--------------------------||--------------------||---------------------5~-||
B||-------------------5------||-----------------5~-||-----------------5h8----||
G||-7b-5---5~--7b-5----------||-------------5h7----||-------------5h7--------||
D||-7b---7-----7b---7---7-5~-||---------5h7--------||---------5h7------------||
A||--------------------------||-----5h7------------||-----5h7----------------||
E||--------------------------||-5h8----------------||-5h8--------------------||

e||-----5-8-8b-10bf-5~-||------5-8-8b-10-10bf------||------------------||
B||-5h8----------------||-5h8-------------------8~-||------------------||
G||--------------------||--------------------------||-------12-10-9----||
D||--------------------||--------------------------||-/7-10---------9~-||
A||--------------------||--------------------------||------------------||
E||--------------------||--------------------------||------------------||

e||------------------||-----5~-------8---7-5------7----------------||
B||------------------||-5h8------5h8--8-------8-5---8-5---5--------||
G||-------12-10-9----||---------------------------------7---7-5----||
D||-/7-10---------7~-||-----------------------------------------7~-||
A||------------------||--------------------------------------------||
E||------------------||--------------------------------------------||

e||-------------5h8-10bf-8~-||-5-5h8-5---5----------------------||
B||---------5h8-------------||---------8---8-5-5h8-5---5--------||
G||-----5h7-----------------||-----------------------7---7-5----||
D||-5h7---------------------||-------------------------------7~-||
A||-------------------------||----------------------------------||
E||-------------------------||----------------------------------||

e||--------------------------------------||-----------------------------12-10-||
B||-10-10-10-13-13-13--10-10-10-13/15-15-||-10-10-10-13-13-13--10-10-10-------||
G||--------------------------------------||-----------------------------------||
D||--------------------------------(varias veces)-----------------------------||
A||-----------------------------------(wah-wah)-------------------------------||
E||--------------------------------------||-----------------------------------||

e||------------------||--------------||
B||------------------||--------------||
G||--7bf-5-----------||-7-5----------||
D||--------7-5-7-5-7-||-----7-5-6-7~-||
A||------------------||--------------||
E||------------------||--------------||

Asi termina... Les aconsejo que traten de hacer todos los vibratos para que salga
mejor!! Si tienen alguna duda, comentario, sacada de madre o lo que sea porfa
escriban al mail... Si hay algun error me lo hacen saber...
Suggest correction
Give kudos to tab author, rate the tab!
1 2 3 4 5
comments
print report bad tab
guest
You may want to rate the tab now too:
select rating
Wanna post a correction for this tab? Suggest correction