Oops, an error
Loading. Please wait.

De Terciopelo Negro Guambrita Chords

214 views 1 this week
no commentswrite comment
1 2 3 4 5
3 more votes to show rating
add to favorites
launch autoscroll
font size
0
reset
transpose
0
reset
display chords
guitar tuner
×
Best way to learn
"De Terciopelo Negro Guambrita"
Autoscroll
slow
fast
+/-
esc
set tempo
stop
E                Am          F         Em
De terciopelo negro guambrita, tengo cortinas
E                Am          F         Em
De terciopelo negro guambrita, tengo cortinas
E                Am              F         Em
Para enlutar mi pecho guambrita te si tu me olvidas
E                Am              F         Em
Para enlutar mi pecho guambrita te si tu me olvidas

(Am)
e |0-0---0-----0-0---0-----0-0---0-----0--0--
B |----0-----0-----0-----0-----0-----0---0---
G |--------0-----------0-----------0---------

C               Am
Si tu me olvidas blanca azucena
C               Am
Si tu me olvidas blanca azucena
                                   F          Em
Si la azucena es blanca guambrita, tu eres morena

E                 Am             F          Em
Si la azucena es blanca guambrita, tu eres morena

(Am)
e |0-0---0-----0-0---0-----0-0---0-----0--0--
B |----0-----0-----0-----0-----0-----0---0---
G |--------0-----------0-----------0---------


E           Am          F         Em
A la samaritana guambrita, te pareciste
E           Am          F         Em
A la samaritana guambrita, te pareciste
E           Am          F         Em
Te pedí un vaso de agua guambrita, no me lo diste
E           Am          F         Em
Te pedí un vaso de agua guambrita, no me lo diste

(Am)
e |0-0---0-----0-0---0-----0-0---0-----0--0--
B |----0-----0-----0-----0-----0-----0---0---
G |--------0-----------0-----------0---------

C                   Am
Me lo negaste prenda querida
C                   Am
Me lo negaste prenda querida
E           Am          F         Em
Si me niegas el agua guambrita, pierdo la vida
E           Am          F
Si me niegas el agua guambrita,

(Am)
e |0-0---0-----0-0---0-----0-0---0-----0--0--
B |----0-----0-----0-----0-----0-----0---0---
G |--------0-----------0-----------0---------
pierdo la vida
E           Am          F         Em
Esta mi tierra linda el Ecuador tiene de todo
E           Am          F         Em
Esta mi tierra linda el Ecuador tiene de todo
E           Am          F         Em
Ríos montes y valles, si señor, y minas de oro
E           Am          F         Em
Ríos montes y valles, si señor, y minas de oro
C                       Am             C              Am
Y sus mujeres son tan hermosas, que se parecen lirios y rosas
E           Am          F         Em
Y sus hombres son bravos si señor y muy celosos.
(Am)
e |0-0---0-----0-0---0-----0-0---0-----0--0--
B |----0-----0-----0-----0-----0-----0---0---
G |--------0-----------0-----------0---------

Es mejor que la toquen oyendo el disco, el ritmo es de albazo.
Espero que les haya gustado.
Suggest correction
Give kudos to tab author, rate the tab!
1 2 3 4 5
comments
print report bad tab
guest
You may want to rate the tab now too:
select rating
Wanna post a correction for this tab? Suggest correction