Oops, an error
Loading. Please wait.

Asimetrica Tab

version 2
version 2

Whole song

34 views 1 this week
no commentswrite comment
1 2 3 4 5
3 more votes to show rating
add to favorites
launch autoscroll
font size
0
reset
how to read this tab
guitar tuner
Autoscroll
slow
fast
+/-
esc
set tempo
stop
Meeeoow!

INTRO:
e|----------------------------------|
B|----------------------------------|
G|--------11-11-------11---11---11--|
D|--------9--9--------9----9----9---|
A|--------11-11-------11---11---11--|
E|--0-0-0-------0-0-0----0----0-----|

e|-----------------------------|
B|-----------------------------|
G|--------9-9-------9---9---9--|
D|--------7-7-------7---7---7--|
A|--------9-9-------9---9---9--|
E|--0-0-0-----0-0-0---0---0----|

e|-----------------------------|
B|-----------------------------|
G|--------4-4-------4---4---4--|
D|--------2-2-------2---2---2--|
A|--------4-4-------4---4---4--|
E|--0-0-0-----0-0-0---0---0----|

e|-----------------------------|
B|-----------------------------|
G|--------2-2-------2---2---2--|
D|--------2-2-------2---2---2--|
A|--------0-0-------0---0---0--|
E|--0-0-0-----0-0-0---0---0----|

VERSO:
Debes saber...
e|----------------------------------|
B|----------------------------------|
G|--------11-11-------11---11---11--|
D|--------9--9--------9----9----9---|
A|--------11-11-------11---11---11--|
E|--0-0-0-------0-0-0----0----0-----|
                                      (x2)
e|-----------------------------|
B|-----------------------------|
G|--------9-9-------9---9---9--|
D|--------7-7-------7---7---7--|
A|--------9-9-------9---9---9--|
E|--0-0-0-----0-0-0---0---0----|

El amanecer...
e|----------------------------------|
B|----------------------------------|
G|--------11-11-------11---11---11--|
D|--------9--9--------9----9----9---|
A|--------11-11-------11---11---11--|
E|--0-0-0-------0-0-0----0----0-----|

Porque despiertas...
e|--------------|
B|--------------|
G|-9-9-9-9--9-9-|
D|-7-7-7-7--7-7-|
A|-9-9-9-9--9-9-|
E|-0-0-0-0--0-0-|

e|----------------------------------|
B|----------------------------------|
G|--------11-11-------11---11---11--|
D|--------9--9--------9----9----9---|
A|--------11-11-------11---11---11--|
E|--0-0-0-------0-0-0----0----0-----|

e|--------------|
B|--------------|
G|-9-9-9-9--9-9-|
D|-7-7-7-7--7-7-|
A|-9-9-9-9--9-9-|
E|-0-0-0-0--0-0-|

Y no se...
e|-----------------------------|
B|-----------------------------|
G|--------4-4-------4---4---4--|
D|--------2-2-------2---2---2--|
A|--------4-4-------4---4---4--|
E|--0-0-0-----0-0-0---0---0----|

e|-----------------------------|
B|-----------------------------|
G|--------2-2-------2---2---2--|
D|--------2-2-------2---2---2--|
A|--------0-0-------0---0---0--|
E|--0-0-0-----0-0-0---0---0----|

VERSO:
e|----------------------------------|
B|----------------------------------|
G|--------11-11-------11---11---11--|
D|--------9--9--------9----9----9---|
A|--------11-11-------11---11---11--|
E|--0-0-0-------0-0-0----0----0-----|
                                      (x4)
e|-----------------------------|
B|-----------------------------|
G|--------9-9-------9---9---9--|
D|--------7-7-------7---7---7--|
A|--------9-9-------9---9---9--|
E|--0-0-0-----0-0-0---0---0----|

Y no se...
e|-----------------------------|
B|-----------------------------|
G|--------4-4-------4---4---4--|
D|--------2-2-------2---2---2--|
A|--------4-4-------4---4---4--|
E|--0-0-0-----0-0-0---0---0----|

e|-----------------------------|
B|-----------------------------|
G|--------2-2-------2---2---2--|
D|--------2-2-------2---2---2--|
A|--------0-0-------0---0---0--|
E|--0-0-0-----0-0-0---0---0----|

CORO: (x4)
Debe ser...
e|-------------------------------------------------------|
B|-------------------------------------------------------|
G|--------1-1-------1---1---1--------2-2-------2---2---2-|
D|--------2-2-------2---2---2--------2-2-------2---2---2-|
A|--------2-2-------2---2---2--------0-0-------0---0---0-|
E|--0-0-0-----0-0-0---0---0----0-0-0-----0-0-0---0---0---|

SOLO: (x2)
e|------------------------|
B|------------------------|
G|------------------------|
D|----------9-------------|
A|---9-11-9---11-9-11--7~-|
E|-7----------------------|

VERSO:
Debes saber...
e|----------------------------------|
B|----------------------------------|
G|--------11-11-------11---11---11--|
D|--------9--9--------9----9----9---|
A|--------11-11-------11---11---11--|
E|--0-0-0-------0-0-0----0----0-----|
                                      (x4)
e|-----------------------------|
B|-----------------------------|
G|--------9-9-------9---9---9--|
D|--------7-7-------7---7---7--|
A|--------9-9-------9---9---9--|
E|--0-0-0-----0-0-0---0---0----|

Y no se...
e|-----------------------------|
B|-----------------------------|
G|--------4-4-------4---4---4--|
D|--------2-2-------2---2---2--|
A|--------4-4-------4---4---4--|
E|--0-0-0-----0-0-0---0---0----|

e|-----------------------------|
B|-----------------------------|
G|--------2-2-------2---2---2--|
D|--------2-2-------2---2---2--|
A|--------0-0-------0---0---0--|
E|--0-0-0-----0-0-0---0---0----|

CORO: (x4)
Debe ser...
e|-------------------------------------------------------|
B|-------------------------------------------------------|
G|--------1-1-------1---1---1--------2-2-------2---2---2-|
D|--------2-2-------2---2---2--------2-2-------2---2---2-|
A|--------2-2-------2---2---2--------0-0-------0---0---0-|
E|--0-0-0-----0-0-0---0---0----0-0-0-----0-0-0---0---0---|

En que momento...
e|----------------------------|
B|----------------------------|
G|-8-8-8-8-8-8--9-11--9-9-9-9-|  [x3]
D|-9-9-9-9-9-9--7-9---7-7-7-7-|
A|-9-9-9-9-9-9----------------|
E|-7-7-7-7-7-7----------------|

Y no se...
e|-----------------------------|
B|-----------------------------|
G|--------4-4-------4---4---4--|
D|--------2-2-------2---2---2--|
A|--------4-4-------4---4---4--|
E|--0-0-0-----0-0-0---0---0----|

e|-----------------------------|
B|-----------------------------|
G|--------2-2-------2---2---2--|
D|--------2-2-------2---2---2--|
A|--------0-0-------0---0---0--|
E|--0-0-0-----0-0-0---0---0----|

CORO (x2)

FINAL:
e|----------------------------------|
B|----------------------------------|
G|--------11-11-------11---11---11--|
D|--------9--9--------9----9----9---|
A|--------11-11-------11---11---11--|
E|--0-0-0-------0-0-0----0----0-----|

e|------------------------------------------|
B|------------------------------------------|
G|-----------11-11----------11----11----11--|
D|-----------9--9-----------9-----9-----9---|
A|-----------11-11----------11----11----11--|
E|--10-10-10-------10-10-10----10----10-----|

e|--------------------------------------|
B|--------------------------------------|
G|--------11-11-------11---11---11--11~-|
D|--------9--9--------9----9----9---9~--|
A|--------11-11-------11---11---11--11~-|
E|--9-9-9-------9-9-9----9----9-----0~--|
Suggest correction
Give kudos to tab author, rate the tab!
1 2 3 4 5
comments
print report bad tab
guest
Wanna post a correction for this tab? Suggest correction