Oops, an error
Loading. Please wait.

Duele Decirlo Tab

44 views 1 this week
no commentswrite comment
1 2 3 4 5
3 more votes to show rating
add to favorites
launch autoscroll
font size
0
reset
how to read this tab
guitar tuner
×
Best way to learn
"Duele Decirlo"
Autoscroll
slow
fast
+/-
esc
set tempo
stop
  
  INTRO
  
  Riff 1                             Riff 2
e|-------------------------4---------4------|-------------------------------------------
B|-------------------------5---------4------|-------------------------------------------
G|-------------------------6---------5------|---------------------------6---------5-----
D|-----2---2/4-2---------6---6-----6---6----|-----2-------2-2/4-2-----6---6-----6---6---
A|---2---2-------2-0---4--------------------|---2---2-2/4-----------4-------------------
E|-0-----------------------------4----------|-0-------------------------------4---------
 |                                    |
e|-x--------------------x---------x---------|
B|-x--------------------x---------x---------|
G|-9--------------------9---------13--------|
D|-9--------------------11--------13--------|
A|-7--------------------11--------11--------|
E|-x--------------------9---------x---------|


Riff 1
Estas esperando en tu cama 
Riff 1
La dosis extraña de cristales de fe.
Riff 1
Y son las últimas horas, 
Riff 2                                  Riff 2
el ultimo intento por pasártela bien.   Riff 3  


  Riff 3
e|-----------------------|
B|-----------------------|
G|------------11-11/13~--|
D|-----------------------|
A|-----7-9-11------------|
E|-7h9-------------------|


  1ra Gruitarra
e|-------------------------------|
B|-------------------------------|
G|-1-1-1-1------------------------|
D|-2-2-2-2---424------2(x4)2/4-442---|
A|-2-2-2-2------20-------|
E|-0-0-0-0--------------------------|
 |2da Guitarra                         |
e|-------------------------------|
B|-------------------------------|
G|-9-----------------------------|
D|-9-------------11-----6--------|
A|-7-------------11-----6--------|
E|----------------9-----4--------|


E           C#m      G#
Estás repitiendo la escena
E                  C#m     G#        E C#m G#
cortando tus venas por un poco de amor.
E          C#m     G#
Y estás soñando de día
E                  C#m      G#     E C#m G#
pensando que todos te queremos tener


CORO

e|------------------------
B|------------------------
G|-9-------------13-------
D|-9------11-----13-------
A|-7------11-----11-------
E|--------9---------------
   E      C#m    G#                
  Uuhhhh  Duele decirlo 

E      C#m         G#     
Uuhhh  no somos lo mismo.
E           C#m     G#
Decir  del polvo de estrellas
       E               C#m     
que escurre del cielo estamos 
G#           E C#m G#
hechos los dos
E        C#m      G#           E
Es ir a polos opuestos del mismo
         C#m     G#      E C#m G#
reflejo, de la misma razón
E     C#m    G#    E     C#m       G#
Uuhhh Duele decirlo UU no somos lo mismo.
     
  A-G# *4 A-B


e|------------------------12---------------------------------------
B|--12p---11p---12p---11p----11-12---12p---11p---12p--------14h0---
G|--14p---13p---14p---13p------------14p---13p---14p--------16h0---
D|-----------------------------------------------------------------
A|-----------------------------------------------------------------
E|-----------------------------------------------------------------

A             G#
Te estamos Esperando
A             G#
No estás dentro de mi
A             G#
No estamos mejorando
A             G#       E
No estamos mejorando así.


EEEE F# G# B

EEEE G# F# E

(Requinto en los mismos acordes y mismo ritmo ke el rasgueo)


CORO
 
con colaboracion de Ricardo Avila
Suggest correction
Give kudos to tab author, rate the tab!
1 2 3 4 5
comments
print report bad tab
guest
You may want to rate the tab now too:
select rating
Wanna post a correction for this tab? Suggest correction