Oops, an error
Loading. Please wait.

Hey Tab

252 views 1 this week
no commentswrite comment
1 2 3 4 5
3 more votes to show rating
add to favorites
launch autoscroll
font size
0
reset
how to read this tab
guitar tuner
×
Best way to learn
"Hey"
Autoscroll
slow
fast
+/-
esc
set tempo
stop
HOLA, ESTA CANCION ES UNA DE MIS FAVORITAS Y SE PUEDE INTERPRETAR
INTERESANTEMENTE A DOS GUITARRAS, UNA LOS AGUDOS Y LA OTRA ACORDES.

AQUI VIENES 4 RIFFS EN LOS CUALES PUEDEN ACOMPAÑAR EN LA PARTE DE LA
CANCION.

AURORA M. OJALA Y NO LO TOMES A MAL PERO ESTA ROLA SABES QUE SIEMPRE
QUEDO COMO ANILLO AL DEDO. YA VES TU NUNCA ME HAS QUERIDO YA LO VES...

ESPERO Y ABRAS BIEN LOS OJOS, TE DIRE COMO DICE ESA CANCION:

"CUANDO NO TE QUIEREN LLORAS Y SI TE QUIEREN... NO SABES QUERER."

SALUDOS TUZITA.

RIFF1.
     (TRES VECES RASGUEO HACIA ARRIBA Y DESPUES EN EL CUARTO EL SLIDE)
e|--5--55/5----------------------------
b|--6--65/6----------------------------
g|--5--55/5----------------------------
D|--------------------------------------
A|--------------------------------------
E|--------------------------------------

RIFF2.

e|--5--54/5----------------------------
b|--5--54/5----------------------------
g|--5--54/5----------------------------
D|--------------------------------------
A|--------------------------------------
E|--------------------------------------

RIFF3.

e|--3-3-3-3-3-3-------------------------
b|--3-3-3-3-5-5-------------------------
g|--3-3-3-3-5-5-------------------------
D|--------------------------------------
A|--------------------------------------
E|--------------------------------------

RIFF4.

e|------3---------3----------3-----------3----------3----1---
b|--------3---------3----------3-----------3----------3--1---
g|--(3)-----3--(3)----3----------(3)-(3)-----3-----------2---
D|-5----------4----------(5)---------5----------(5)------3---
A|----------------------5----------------------5---------3---
E|-------------------------------------------------------1---

PRIMERA GUITARRA

INTRO

e|----5------5-----5-----5------5----5--
b|------6-(6)--(6)---------5-(5)---5----
g|---------------------5----------------
D|--3-----------------------------------
A|--------------------------------------
E|--------------------------------------

PRIMER PARRAFO
e|----5------5-----5-----5------5----5--------------------------------
b|------6-(6)--(6)---------5-(5)---5----------------------------------
g|---------------------5----------------------------------------------
D|--3-----------------------------------------------------------------
A|--------------------------------------------------------------------
E|--------------------------------------------------------------------
    Hey!               No vayas presumiendo


e|----5------5-----5--------------------------------------------------
b|------5-(5)--(5)----------------------------------------------------
g|--------------------------------------------------------------------
D|--2-----------------------------------------------------------------
A|--------------------------------------------------------------------
E|----------(F)-------------------------------------------------------
por ahí  diciendo que no puedo estar sin ti


                Gm  C Bb A BAJEO
tú que sabes de mí?

Gm
Hey!
                            Csus
ya sé que a ti te gusta presumir
   Gm                  Csus
decir a los amigos que sin ti
            F
ya no puedo vivir.

SLIDE

e|---5/----8---------
b|---6/---10---------


BAJEO

C Bb Bb A A G G F


RIFF1.  F
Hey!
                         RIFF2.  Fmaj7
no creas que te haces un favor
                             RIFF1.   F
cuando hablas a la gente de mi amor
               RIFF3. Gm  Csus
y te burlas de mí.

RIFF4. Gm
Hey!
        Gmmaj7                    Csus
que hay veces que es mejor querer así
     Gm7                   Csus
que ser querido y no poder sentir
               F        F7
lo que siento por ti.

CORO:

Bb
Ya ves
                           F
tú nunca me has querido ya lo ves
                          Gm
que nunca he sido tuyo ya lo sé
    Csus                  F (DOS TIEMPOS)  F7
fue sólo por orgullo ese querer

Bb
Ya ves
                        F
de que te vale ahora presumir
                            Gm
ahora que no estoy ya junto a ti
                 Csus  Gm               Csus
que les dirás de mí?   que les dirás de mí?

RIFF1.  F
Hey!
                         RIFF2.  Fmaj7
recuerdo que ganabas siempre tú
                             RIFF1.   F
que hacías de ese triunfo una virtud
               RIFF3. Gm  Csus
yo era sombra y tú luz.

RIFF4. Gm
Hey!
        Gmmaj7                    Csus
no sé si tú también recordarás
     Gm7                   Csus
que siempre que intentaba hacer la paz
               F        F7
yo era un río y tu mar.

CORO:

Bb
Ya ves
                           F
tú nunca me has querido ya lo ves
                          Gm
que nunca he sido tuyo ya lo sé
    Csus                  F (DOS TIEMPOS)  F7
fue sólo por orgullo ese querer

Bb
Ya ves
                        F
de que te vale ahora presumir
                            Gm
ahora que no estoy ya junto a ti
                 Csus  Gm               Csus
que les dirás de mí?   que les dirás de mí?


e|----5------5-----5-----5------5----5---------5------5---5-----------
b|------6-(6)--(6)---------5-(5)---5-------------6-(6)-(6)-----------
g|---------------------5----------------------------------------------
D|--3----------------------------------------3------------------------
A|--------------------------------------------------------------------
E|--------------------------------------------------------------------
    Hey!               ahora que ya todo terminó

e|---5------5----5---------5------5---5-----5-------5----5------------
b|------5-(5)---5-------------6-(6)-(6)-------5-(5)----5--------------
g|-5--------------------------------------5---------------------------
D|----------------------3---------------------------------------------
A|--------------------------------------------------------------------
E|--------------------------------------------------------------------
y como siempre soy el perdedor

                 Gm  Csus  Bb A (BAJEO)
cuando pienses en mí.

Gm
Hey!
   Gmmaj7       Gm7          Csus
no creas que te guardo algún rencor
Gm                             Csus
es siempre más feliz quien más amó

y ese siempre fui yo.

SLIDE

e|---5/----8---------
b|---6/---10---------

CORO:

Bb
Ya ves
                           F
tú nunca me has querido ya lo ves
                          Gm                        X 3
que nunca he sido tuyo ya lo sé
    Csus                  F (DOS TIEMPOS)  F7
fue sólo por orgullo ese querer

Bb
Ya ves
                        F
de que te vale ahora presumir
                            Gm
ahora que no estoy ya junto a ti
                 Csus  Gm               Csus
que les dirás de mí?   que les dirás de mí?


ACORDES

         EADgbe       EADgbe
Bb       688766       xxx766
F        133211       xxx565
FMaj7    132211       xxx555
F7       131211       xxx545
Gm       355333       xxx333
GmMaj7   335433       xxx363
Gm7      353333       xxx363
Csus     335533       xxx553

DUDAS COMENTARIOS Y/O SUGERENCIAS FAVOR DE ESCRIBIR
A alfa_omega22@
Suggest correction
Give kudos to tab author, rate the tab!
1 2 3 4 5
comments
print report bad tab
guest
You may want to rate the tab now too:
select rating
Wanna post a correction for this tab? Suggest correction