Oops, an error
Loading. Please wait.

Ni Si Quiera Tab

27 views 1 this week
no commentswrite comment
1 2 3 4 5
3 more votes to show rating
add to favorites
launch autoscroll
font size
0
reset
how to read this tab
guitar tuner
Autoscroll
slow
fast
+/-
esc
set tempo
stop
INTRO:

       A                     A#          F#
E------5----5----5---5--------4-----4----2------------------------
B------5--5----5---5----------4---4------2------------------------
G------6----------------------5----------3------------------------
D------7----------------------6----------4------------------------
A------7----------------------6----------4------------------------
E------5----------------------4----------2------------------------


 A                            A#           F#
  Ni si quiera se de ti suficiente para descifrarte,
 A                            A#            F#
  ni me pienso hacer sufrir para enseñarte lo que tengo aquí.
 A                        A#             F#                E
  Crees que tengo que mentir para demostrarte que estoy mejor así.
  
 A                             A#                F#
  Tantos años de flotar en un destino oscuro y nebuloso,
 A                             A#                F#
  es difícil recordar quien soy tu quien eres yo quien era.
 A                           A#                  F#         E
  Solo queda descifrar el silencio frío que nos separa hoy.

 E             C            F#
  Viajar abordo de mis emociones.
 E                 C              F#
  En un carrusel de espejos y colores.
 E          C           F#     E
  Como quisiera pintar mi confusión.


 SE REPITE:A,A#,F# Y E.
  En tus ojos puedo ver un rencor amargo que aparece,
  y lo puedo comprender, mil razones para odiarme no están mal.
  Soy culpable hasta el final , pero también me duele y también puedo llorar.

E             C            F#
  Viajar abordo de mis emociones.
 E                 C              F#
  En un carrusel de espejos y colores.
 E          C           F#     E
  Como quisiera pintar mi confusión.


SOLO:
     A            A#               F#
E-------------------------------------------------------------
B-----------2-------------------------------------------------
G----2--2-4---4-2---------------------------------------------
D-----------------4-6-4-6--4-4--6-7--6-6-----9---11-----------
A--------------------------------------------------------------
E--------------------------------------------------------------

     A             A#               F#               E
E----------------------------------------------------0---------
B-----------2----------------9--6--------------------0---------
G---2--2-4----4-2--4-6-4-6--------6-4--222---4-6-----1---------
D----------------------------------------------------2---------
A----------------------------------------------------2---------
E----------------------------------------------------0---------


E             C            F#
  Viajar abordo de mis emociones.
 E                 C              F#
  En un carrusel de espejos y colores.
 E          C           F#     E
  Como quisiera pintar mi confusión
  Como quisiera borrar mis huellas
  Como quisiera cortar mis alas
  Como quisiera volver a casa.
Suggest correction
Give kudos to tab author, rate the tab!
1 2 3 4 5
comments
print report bad tab
guest
Wanna post a correction for this tab? Suggest correction