Oops, an error
Loading. Please wait.

Nuevo Destino Tab

33 views 1 this week
no commentswrite comment
1 2 3 4 5
3 more votes to show rating
add to favorites
launch autoscroll
font size
0
reset
how to read this tab
guitar tuner
×
Best way to learn
"Nuevo Destino"
Autoscroll
slow
fast
+/-
esc
set tempo
stop
Está dos tres facil, y si le ponen atencion donde dice:
"Buscamos un nuevo destino", si le ponen atención lleva
el acorde de A pero es muy rapido, por lo demás está facíl!!!

e|------------------------------------------------------------5--2--
B|------------------------------------------------------------5--2--
G|--6-6-6-6-6-6------------------6-6-6-6-6-6------------------6--3--
D|--------------9-7-4-4p2h4-4----------------9-7-4-4p2h4-2h4--7--4--
A|------------------------------------------------------------7--4--
E|------------------------------------------------------------5--2--
A                 F#m             A   F#
Canciones de sobra para controlar
B|------------------------------------------------------------
G|--6-6-6-6-6-6------------------6-6-6-6-6-6------------------
D|--------------9-7-4-4p2h4-4----------------9-7-4-4p2h4-2h4--
A|------------------------------------------------------------
A           F#m                A   F#m
eternos discursos para motivar
B|------------------------------------------------------------
G|--6-6-6-6-6-6------------------6-6-6-6-6-6------------------
D|--------------9-7-4-4p2h4-4----------------9-7-4-4p2h4-2h4--
A|------------------------------------------------------------
A           F#m                    A   F#m
borrarón tu mente con electricidad
B|------------------------------------------------------------
G|--6-6-6-6-6-6------------------6-6-6-6-6-6------------------
D|--------------9-7-4-4p2h4-4----------------9-7-4-4p2h4-2h4--
A|------------------------------------------------------------
A             F#m
pero no te pueden engañar.
B|-----------------------------
G|--6-6-6-6-6-6----------------
D|--------------9-7-4-4p2h4-4--
A|-----------------------------
D            F
El mundo da vueltas,
D            F
el mundo da vueltas,
D            F
el mundo da vueltas,
D            F        E             A
el mundo da vueltas al rededor de ti.
D|-----------------------------------------------
A|---------4-4h5-4---4----------4----------------
E|--5~~5-7---------7---7-5--5-7---2-2-2-2-0h2/5--
A
Decidimos saltar la reja y escapar
B|------------------------------------------------------------
G|--6-6-6-6-6-6------------------6-6-6-6-6-6------------------
D|--------------9-7-4-4p2h4-4----------------9-7-4-4p2h4-2h4--
A|------------------------------------------------------------
A
la sobra del regimen intelectual
B|----------------------------------------------------------------
G|--6-6-6-6-6-6------------------6-6-6-6-6-6-----6h7-6-4-4h6-4-2--
D|--------------9-7-4-4p2h4-4----------------9-7------------------
A|----------------------------------------------------------------
A
los libros de texto no dicen la verdad
B|------------------------------------------------------------
G|--6-6-6-6-6-6------------------6-6-6-6-6-6------------------
D|--------------9-7-4-4p2h4-4----------------9-7-4-4p2h4-2h4--
A|------------------------------------------------------------
pero no nos pueden engañar.
B|---------------------------------
G|--6-6-6-6-6-6----------/7-6------
D|--------------9-7-4-4p2-----9-7--
A|---------------------------------
D            F
El mundo da vueltas,
D            F
el mundo da vueltas,
D            F
el mundo da vueltas,
D            F        E
el mundo da vueltas al rededor de ti.

D        A   F#m        A  D        A   F#m        A
Buscamos un nuevo destino, buscamos un nuevo destino,
D        A   F#m        A  D        A   F#m        A
buscamos un nuevo destino, buscamos un nuevo destino,
D        A   F#m        A  D        A   F#m          F
buscamos un nuevo destino, buscamos un nuevo destino,
A            F#m                  A   F#m
Saber que la fama es algo temporal
G|-------------
D|--4-4p2h4-4--
A|-------------
A             F#m                  A   F#m
todo lo que sube no tiene que bajar
B|------------------------------------------------------------
G|--6-6-6-6-6-6------------------6-6-6-6-6-6------------------
D|--------------9-7-4-4p2h4-4----------------9-7-4-4p2h4-2h4--
A|------------------------------------------------------------
A             F#m                  A   F#m
de verme con riso se puede terminar
B|------------------------------------------------------------
G|--6-6-6-6-6-6-6h7p6h7p6h7p6h7--6-6-6-6-6-6------------------
D|-------------------------------------------9-7-4-4p2h4-2h4--
A|------------------------------------------------------------
A              F#m
pero mientras dure, no está mal.
B|---------------------------------
G|--6-6-6-6-6-6----------/7-6------
D|--------------9-7-4-4p2-----9-7--
A|---------------------------------
D            F
El mundo da vueltas,
D            F
el mundo da vueltas,
D            F
el mundo da vueltas,
D            F        E
el mundo da vueltas al rededor de ti.

D        A   F#m        A  D        A   F#m        A
Buscamos un nuevo destino, buscamos un nuevo destino,
D        A   F#m        A  D        A   F#m         F
buscamos un nuevo destino, buscamos un nuevo destino.
A  F#m, A  F#m, A  F#m, A  F#m,
A  F#m, A  F#m, A  F#m, A  F#m  F.
D        A   F#m        A  D        A   F#m        A
Buscamos un nuevo destino, buscamos un nuevo destino,
D        A   F#m        A  D        A   F#m        A
buscamos un nuevo destino, buscamos un nuevo destino,
D        A   F#m        A  D        A   F#m        A
buscamos un nuevo destino, buscamos un nuevo destino.
D  A  F#m  A,  D  A  F#m  A,
B|----------------
G|--7--X----------
D|--7--X--7--6/7--
A|--5--X--7--6/7--
E|--------5--4/5--
Suggest correction
Give kudos to tab author, rate the tab!
1 2 3 4 5
comments
print report bad tab
guest
You may want to rate the tab now too:
select rating
Wanna post a correction for this tab? Suggest correction