Oops, an error
Loading. Please wait.

Risas De Colores Tab

58 views 1 this week
no commentswrite comment
1 2 3 4 5
3 more votes to show rating
add to favorites
×
Save as Personal and add changes to this tab that will be seen only by you. Learn more ›
×
You can save this tab as Personal to edit and correct it or add notes. All changes will be seen only by you. Learn more »
save as personal
new!
launch autoscroll
font size
0
reset
how to read this tab
guitar tuner
Autoscroll
slow
fast
+/-
esc
set tempo
stop
INTRO:(El intro es Bateria y luego un bajo asi)
                Casi el bajo es el mismo en el intro y en los coros.


INTRO: Bajo

       

G-------------------------------------------------------------
D-------------------------------------------------------------                Primera parte x 2
A-------------------------5-----5-------3---3---------------
E------3-3-3-3-3----6-6--6-6-----5-5-5-5----------------


G----------------------------------------------------------------          Despues del primer coro
D----------------------------------------------------------------                
A-------------------------5-----5-------3---3----5-3-1-0-----
E------3-3-3-3-3----6-6--6-6-----5-5-5-5----------------3--

INTRO: GUITARRA
             Gm              A#             A
E-------------------------------------------------------------
B-------------------------------------------------------------
G-------------------------------------------------------------
D-----5--5-5-5-5----8-8-8-8-----7-7-7-7----------------                x2
A-----5--5-5-5-5----8-8-8-8-----7-7-7-7----------------
E------3-3-3-3-3----6-6--6-6-----5-5-5-5----------------


    Gm                                                Gm
E--3----------------------------------------3------------------
B--3----------------------------------------3------------------
G--3----------------------------------------3------------------
D--5----------------------------------------5----------------               
A--5----------------------------------------5----------------
E--3----------------------------------------3----------------

       Tantos pensamientos negros   ya no quiero estar despierto

               A#              D          A#
E--------------------------------------------------------------
B--------------------------------------------------------------
G------------------------7-7--------------------------------------
D--------8-8-8-8-------7-7------8-8------------------------------                
A--------8-8-8-8-------5-5------8-8-----------------------------
E---------6-6-6-6-----------------6-6-----------------------------
             Pero como brilla el cuerpo


                   A                       D     A#   A
E-------------------------------------------------------------
B-------------------------------------------------------------
G--------------------------------7-7-------------------------
D---------7-7-7-7--------------7-7---8---7---------------                
A--------7-7-7-7--------------5-5----8---7--------------
E---------5-5-5-5---------------------6---5-------------
              Desde  adentro puedo verlo

                 A#            D             A#
E--------------------------------------------------------------
B--------------------------------------------------------------
G------------------------7-7--------------------------------------
D--------8-8-8-8-------7-7------8-8------------------------------                
A--------8-8-8-8-------5-5------8-8-----------------------------
E---------6-6-6-6-----------------6-6-----------------------------
                Cuantos años tiene la de

              A                      D     A# A
E-------------------------------------------------------------
B-------------------------------------------------------------
G--------------------------7-7------------------------------
D---------7-7-7-7--------7-7---8---7--------------------           
A--------7-7-7-7--------5-5----8---7------------------
E---------5-5-5-5---------------6---5-------------------
                   Flores      en   el    pelo


           Gm            A              Gm        Gm
E------------------------------------------------------------
B------------------------------------------------------------
G------------------------------------------------------------
D-----5-----------7------------5--------5-------------------       x2
A-----5-----------7------------5--------5-------------------
E------3----------5------------3--------3-------------------


Gm                                   Gm
     Miro afuera es mi cadáver, miro adentro y ya no hay nadie
A#             D    A#        A     D   A#             A
lentamente se dormía, lamentando se decía
A#        D        A#     A   D    A#         A
quiero ver el arcoiris, dame otra pastilla
       
            Gm              A#             A                      Gm
E-------------------------------------------------------------
B-------------------------------------------------------------
G-------------------------------------------------------------
D-----5--5-5-5-5----8-8-8-8-----7-7-7-7------5-5---5-----                X2
A-----5--5-5-5-5----8-8-8-8-----7-7-7-7------5--5--5------
E------3-3-3-3-3----6-6--6-6-----5-5-5-5------3--3--3-----

         Risas        de  Colores
Solo:1
         Gm            A              Gm        Gm
E------------------------------------------------------------
B------------------------------------------------------------
G------------------------------------------------------------
D-----5-----------7------------5--------5-------------------       x2
A-----5-----------7------------5--------5-------------------
E------3----------5------------3--------3-------------------
Gm                                 Gm
    Todo el mundo me atosiga, esas tías como chingan
 A#              D       A#    A     D   A#         A
si te fumas otro de esos, te vas a morir
    A#     D             A#              A      D     A#             A
Todos tienen su momento, pero yo me voy contento

           Gm              A#             A                      Gm
E-------------------------------------------------------------
B-------------------------------------------------------------
G-------------------------------------------------------------
D-----5--5-5-5-5----8-8-8-8-----7-7-7-7------5-5---5-----          x2      
A-----5--5-5-5-5----8-8-8-8-----7-7-7-7------5--5--5------
E------3-3-3-3-3----6-6--6-6-----5-5-5-5------3--3--3-----

         Risas        de       Colores
Solo:2
         Gm            A              Gm        Gm
E------------------------------------------------------------
B------------------------------------------------------------
G------------------------------------------------------------
D-----5-----------7------------5--------5-------------------       x4
A-----5-----------7------------5--------5-------------------
E------3----------5------------3--------3-------------------
Final:

              Gm              A#                   C                        D                 Gm
E-------------------------------------------------------------------------------------
B-------------------------------------------------------------------------------------
G------------------------------------------------------------------------------------
D-----5--5-5-5-5----8-8-8-8-----10-10-10-10-----12-12-12-12------5------           x2     
A-----5--5-5-5-5----8-8-8-8-----10-10-10-10-----12-12-12-12------5-----
E------3-3-3-3-3----6-6--6-6-----8--8---8---8-----10-10-10--10------3----


Cualquier correccion es bien recibida
Suggest correction
Give kudos to tab author, rate the tab!
1 2 3 4 5
comments
print report bad tab
guest
Wanna post a correction for this tab? Suggest correction