Oops, an error
Loading. Please wait.

Sunday Fever Tab

9 views 1 this week
no commentswrite comment
1 2 3 4 5
3 more votes to show rating
add to favorites
launch autoscroll
font size
0
reset
how to read this tab
guitar tuner
Autoscroll
slow
fast
+/-
esc
set tempo
stop
Help us to improve Ultimate-Guitar.com Take our survey!
×
A ESTA ROLA LE FALTA ELSOLO Y EL INTRO,POR CIERTO
EL SOLO LLEVA EL MISMO INTRO

INTRO:
e---5-5-5-5-6-7-8-8-9

SOLO:

e---------------------------------------------
B9-9-9-9-9-7-7-7-7-------7-7-5-7-7-----5-5-7-7
G------------------7-9-9-----------7-7--------

e---------------------------------------------
B------7-7--------8-8------7-7----------------
G-7-9-9----8-10-10----7-9-9-------------------
D------------------------------9-9-7-7--------

e---------------------------------------------
B-7-9-9---------------------------7--7--------
G-------9-9-7----------7-9-7-9-9--------------
D------------9-9-7-9-9------------------------


NOTA:SI TE GUSTAN LAS ROLAS DE LA GUSANA
 Y TE INTERESA UNA AGRUPACION(SI VIVES EN EL DF)
MANDA UN MAIL ALDOGUZMANMX@
Suggest correction
Give kudos to tab author, rate the tab!
1 2 3 4 5
comments
print report bad tab
guest
You may want to rate the tab now too:
select rating
Wanna post a correction for this tab? Suggest correction