Oops, an error
Loading. Please wait.

Superbee Tab

8 views 1 this week
no commentswrite comment
1 2 3 4 5
3 more votes to show rating
add to favorites
launch autoscroll
font size
0
reset
how to read this tab
guitar tuner
×
Best way to learn
"Superbee"
Autoscroll
slow
fast
+/-
esc
set tempo
stop
INTRO:
          D           A#7          A7                  X 2
E---------5------------6-----------5----------------
B---------7------------6-----------5----------------
G---------7------------7-----------6----------------
D---------7------------6-----------5----------------   
A---------5------------8-----------7----------------
E---------5------------6-----------5----------------


VERSO:    D            Bm
E---------2------------2---------------
B---------3------------3---------------
G---------2------------4---------------
D---------0------------4---------------    
A---------0------------2---------------
E---------0------------X---------------


  D             Bm           D        Bm
  Yo se que tienes lo que quieres de el ,
  D             Bm           D        Bm 
  y que tu corazón le quiere ser fiel.
  D            Bm             D        Bm
  Pero sus super días han llegado a su fin
  
   D        Bm             E          G
E--2--------2--------------0----------3---------------
B--3--------3--------------0----------3---------------
G--2--------4--------------1----------4---------------
D--0--------4--------------2----------5---------------    
A--0--------2--------------2----------5---------------
E--0--------X--------------0----------3--------------- 
 por que te aburres cuando sales con el


   C         G       C        G         C       G
E--3--------3--------3--------3---------3-------3---
B--5--------3--------5--------3---------5-------3---
G--5--------4--------5--------4---------5-------4---
D--5--------5--------5--------5---------5-------5---   
A--3--------5--------3--------5---------3-------5---
E--X--------3--------X--------3---------X-------3---
 Serás distinta , cuando me acerque, daremos vueltas 

   C         D           F      E
E--3---------5-----------8------7--------------------
B--5---------7-----------10-----9---------------------
G--5---------7-----------10-----9---------------------
D--5---------7-----------10-----9---------------------     
A--3---------5-----------8------7--------------------
E--X---------5-----------X------0--------------------
 en mi super bee.   
  
SE REPITE:VERSO  D,Bm,G Y E.

Y no me importa que me mires así, 
por que he hecho planes para hacerme de ti
Super celeste cromo tecno y vinyl 
que te estremecen cuando subes en el.

  C         G       C        G         C       G
E--3--------3--------3--------3---------3-------3---
B--5--------3--------5--------3---------5-------3---
G--5--------4--------5--------4---------5-------4---
D--5--------5--------5--------5---------5-------5---     
A--3--------5--------3--------5---------3-------5---
E--X--------3--------X--------3---------X-------3---
 Serás distinta , cuando me acerque, daremos vueltas 

   C         D           F      E    D   F   E
E--3---------5-----------8------7----5---8---7--
B--5---------7-----------10-----9----7---10--9--
G--5---------7-----------10-----9----7---10--9--
D--5---------7-----------10-----9----7---10--9--     
A--3---------5-----------8------7----5---8---7--
E--X---------5-----------X------0----5---X---0--
 en mi super bee.   


     D          Dm       D      Dm                        
E----5----------5--------5-------5-------------
B----7----------6--------7-------6-------------
G----7----------7--------7-------7-------------
D----7----------7--------7-------7-------------   
A----5----------5--------5-------5-------------
E----5----------X--------5-------X-------------

     Y cuando estemos solos,
     daremos vuelo juntos
     a todos nuestros sueños

     C                F        D       SOLO: (EL LIGADO VA ASI *)            
E----3----------------8--------5-----------
B----5----------------10-------7-----------
G----5----------------10-------7-----------
D----5----------------10-------7-----------    
A----3----------------8--------5-----------
E----X----------------X--------X----------- 
    nada es imposible junto a ti.

  

     D              Bm
E------------------------------
B------3-2---------------------
G----7-----4-2--4--2-----------
D-4*7-----------------4---------                
A------------------------------
E------------------------------


     D                Bm
E------------------------------
B------3-2---------------------
G----7-----4-2--4--2-----------
D-4*7-----------------4---------               
A------------------------------
E------------------------------
   

     D               Bm
E------------------------------
B-----7----7----7----7---------
G--6*7--6*7--6*7--6*7----------
D------------------------------      
A------------------------------
E------------------------------
 
          D               C
E-------10-----10-----10-----10
B---9*10---9*10---9*10---9*10--
G------------------------------
D------------------------------      
A------------------------------
E------------------------------


   C         G       C        G         C       G
E--3--------3--------3--------3---------3-------3---
B--5--------3--------5--------3---------5-------3---
G--5--------4--------5--------4---------5-------4---
D--5--------5--------5--------5---------5-------5---    
A--3--------5--------3--------5---------3-------5---
E--X--------3--------X--------3---------X-------3---
 Serás distinta , cuando me acerque, daremos vueltas 

   C         D           F      E
E--3---------5-----------8------7--------------------
B--5---------7-----------10-----9---------------------
G--5---------7-----------10-----9---------------------
D--5---------7-----------10-----9---------------------     
A--3---------5-----------8------7--------------------
E--X---------5-----------X------0--------------------
 en mi super bee.   


   D        Bm             E          G
E--2--------2--------------0----------3---------------
B--3--------3--------------0----------3---------------
G--2--------4--------------1----------4---------------
D--0--------4--------------2----------5---------------   
A--0--------2--------------2----------5---------------
E--0--------X--------------0----------3--------------- 
   LA,LA,LA,LA,LA....       LA,LA,LA,LA.

   C         G       C        G         C       G
E--3--------3--------3--------3---------3-------3---
B--5--------3--------5--------3---------5-------3---
G--5--------4--------5--------4---------5-------4---
D--5--------5--------5--------5---------5-------5---    
A--3--------5--------3--------5---------3-------5---
E--X--------3--------X--------3---------X-------3---
  Serás distinta , cuando me acerque, daremos vueltas 

   C         D           F      E
E--3---------5-----------8------7--------------------
B--5---------7-----------10-----9---------------------
G--5---------7-----------10-----9---------------------
D--5---------7-----------10-----9---------------------     
A--3---------5-----------8------7--------------------
E--X---------5-----------X------0--------------------
 en mi super bee.  


FINAL: 
   D         F      E      D   F      E    D   F   E
E--5---------8------7------5---8------7----5---8---7--
B--7---------10-----9------7---10-----9----7---10--9--
G--7---------10-----9------7---10-----9----7---10--9--
D--7---------10-----9------7---10-----9----7---10--9--     
A--5---------8------7------5---8------7----5---8---7--
E--X---------X------0------X---X------0----5---X---0--
 

    D           F      E          D
E---5-----------8------7----------5--
B---7-----------10-----9----------7--
G---7-----------10-----9----------7--
D---7-----------10-----9----------7--     
A---5-----------8------7----------5--
E---5-----------X------0----------5--
Suggest correction
Give kudos to tab author, rate the tab!
1 2 3 4 5
comments
print report bad tab
guest
You may want to rate the tab now too:
select rating
Wanna post a correction for this tab? Suggest correction