Oops, an error
Loading. Please wait.

Venus En Al Arena Tab

31 views 1 this week
no commentswrite comment
1 2 3 4 5
3 more votes to show rating
add to favorites
×
Save as Personal and add changes to this tab that will be seen only by you. Learn more ›
×
You can save this tab as Personal to edit and correct it or add notes. All changes will be seen only by you. Learn more »
save as personal
new!
launch autoscroll
font size
0
reset
how to read this tab
guitar tuner
Autoscroll
slow
fast
+/-
esc
set tempo
stop
Riff * (este es el riff  k toka el buen george)
------------------------------------------------
-------5----------5------------5----------------
----------5----------5------------5-------------
--------------------------------------------0---
-3-3--------3-3--------0-0----------------3-----
-------------------------------------3--3-------


akorde 1 'F'           
(112331)               
                              
--1--------------      
--1--------------      
--2--------------      
--3--------------                                    
--3--------------      
--1--------------

akorde 2 'G'
(334553)                                     

--3--------------
--3--------------
--4--------------
--5--------------
--5--------------
--3--------------


INTRO (riff * 4 veces)

*en la kinta vez empieza el verso*  


No me importa ser tu kerubin espacial
si tu kieres ser mi princesa estelar                   
y puedo ser tu definicion de placer animal      
tu rebelacion


CORO
F       G              F      G
puedes ser la dosis perfekta
puedes ser mi lluvia de estrellas
mi venus en la arena


gusano (vulves a ser)
icq:58677421
Suggest correction
Give kudos to tab author, rate the tab!
1 2 3 4 5
comments
print report bad tab
guest
Wanna post a correction for this tab? Suggest correction