Oops, an error
Loading. Please wait.
7 views 1 this week
no commentswrite comment
1 2 3 4 5
3 more votes to show rating
add to favorites
launch autoscroll
font size
0
reset
how to read this tab
guitar tuner
Autoscroll
slow
fast
+/-
esc
set tempo
stop
Help us to improve Ultimate-Guitar.com Take our survey!
×
Este es el trabajo de los usuarios del foro (MON de Barakaldo,
R&R FOREVER,...)de la página de  n mio.. Está un poco
modificada( incluso gracias a la ayuda del propio Iñaki q se
a metio a conestar al foro)Aún asi tiene algunos errores.
Decidí meterla para q poco a poco entre mas gente y a partir
de estas 4 pinceladas la vaya completando, y además algien tenía
q decidirse a meter ya las canciones del Uoho q s 1 crack.
N fin, ahi teneis( repito,gracias a los del foro!)


intro Version Iñaki y FOREVER:
e-------------------------------------------------
B-------------------------------------------------
G-------------------------------------------------
D------------5-------------5----------------------
A---2-2------3----2-2------4----------------------
E---0-0-3-0-------0-0-3-2-------------------------

MON:
(hace dos de estos y en el tercero ya entra la batera y dios (uoho)
ya hasta el noveno con el super punteo)

luego hace algo asi,"palm mute"con mi en traste 7 y mi en 0:
escuchad bien esto que es la base para las estrofas de la canción.


__MI_MI____MI__MI_MI___MI__MI_MI___MI___DO__RE
e-------------------------------------------------------------------
B-------------------------------------------------------------------
G--9-----------------9----------------9------------------555---777--
D--9---2-------2----9---2------2----9---2-------2-----555--777----
A--7---2-------2----7---2------2----7---2-------2-----333--555----
E------ 0--0-3-0--------0--0-3-0--------0--0-3-0--------------- 2 veces


(ahora ya empieza a cantar sobre esto anterior la primera estrofa asi:)


__MI_MI____MI__MI_MI___MI__MI_MI___MI___DO__RE
e-------------------------------------------------------------------
B-------------------------------------------------------------------
G--9-----------------9----------------9------------------555---777--
D--9---2-------2----9---2------2----9---2-------2-----555--777----
A--7---2-------2----7---2------2----7---2-------2-----333--555----
E------ 0--0-3-0--------0--0-3-0--------0--0-3-0--------------------

Luna ya nunca enciende la luz solos ella y el tic-tac de un reloj


__MI_MI____MI__MI_MI___MI___MI_MI___MI___DO__RE
e--------------------------------------------------------------------
B--------------------------------------------------------------------
G--9-----------------9----------------9------------------555---777--
D--9---2-------2----9---2------2----9---2-------2-----555--777----
A--7---2-------2----7---2------2----7---2-------2-----333--555----
E------ 0--0-3-0--------0--0-3-0--------0--0-3-0--------------------

derramando el tiempo en el sofá, Luna ve que su vida se va


DO RE MI
e--------------------------------------------------------------------
C-------------------------------------------------------------------
G--55--------77-------99--------------------------------------------
D--55--------77-------99--------------------------------------------
A--33--------55-------77---------------------------------------------
E--------------------------------------------------------------------
y un dolor rompe su interior


(justo seguido esto, es como la intro)
DO# RE
e------------------------------------------------------
B------------------------------------------------------
G--------------6-----------------7--------------------
D--------------6-----------------7--------------------x2 veces
A--------------4-----------------5--------------------
E--0---0-3-2--------0---0-3-2-----------------------


(la siguiente estrofa, igual hasta que termina de cantar la estrofa:
"para qué?no hay nada que hacer",despues de eso hace: )

MI DO RE
e---------------------------------------------------
C---------------------------------------------------
G--------555--777-----------------------------------
D--222--555--777------------------------------------
A--222--333--555------------------------------------
E--000----------------------------------------------


(y el estribillo)
MI RE DO inttrox1
Dentro de casa siempre es invierno.
MI RE DO inttrox1
Ya no hay colores, duele el silencio?
MI RE DO RE MI DO RE MI
Ni el perro mueve el rabo si te oye entrar.

(aqui viene un punteo y acompañando hace en MI un riff haciendo
palm mute y despues DO RE hay q escucharlo pa piyarlo bien,
 lo hace 3 veces)

(despues la tercera estrofa, es como la 2ª cogiendo el estribillo igual)

(luego el estribillo)

(punteo al canto y aki ya tiene tela la guitarra aunq
al final antes de cantar,el ultimo trozo de guitarra hace
el riff ese sobre MI que he dicho antes)
ELUOHOYOGI:
Hace algo parecido a esto para empezar y acabar el solo; oidlo 1 poco y
probad dspacio q no es tan dificil.. creo q lo ace 2 veces:
e--------------------------------------------------
B--------------------------------------------------
G--------------------------------------------------
D---------------------0-1-2------------------------
A---------2-1-0---------------------2-1-0-------2--
E---0-2-3-------3-2-0---------0-2-3-------3-2-0-0--

e--------------------------------------------------
B--------------------------------------------------
G--------------------------------------------------
D----------------------0-1-2-----------------------
A----------2-1-0--------------------2-1-0---2------
E----0-2-3-------3-2-0--------0-2-3---------0------


(pa terminar la ultma estrofa como las demas)

Si quereis preguntar algo o poner la correccion se agradece.
Si os interesa aprender cositas del Uoho o comentar esta cancion
y las demas dl nuevo disco podeis ir a  q tienn
montao un foro mu chulo y mu respetable.
Saludos y gracias a ellos y mucho Rock & Roll!!
Suggest correction
Give kudos to tab author, rate the tab!
1 2 3 4 5
comments
print report bad tab
guest
You may want to rate the tab now too:
select rating
Wanna post a correction for this tab? Suggest correction