Oops, an error
Loading. Please wait.

Mi Primera Rumba Bass

28 views 1 this week
no commentswrite comment
1 2 3 4 5
3 more votes to show rating
add to favorites
launch autoscroll
font size
0
reset
guitar tuner
×
Best way to learn
"Mi Primera Rumba"
Autoscroll
slow
fast
+/-
esc
set tempo
stop
En los inicios de la India, de la mano del maestro Eddie Palmieri, el
"Rompeteclas", el "Pianoman", el "Molestoso",
"el Rebelde de la Salsa",..., como usted lo quiera llamar.
Aquí les va este sabroso y movido guaguancó:

Intro:

G ----10-10------------6-8-10--8--|
D -10----------8-----8------------|
A ----------8-----6---------------| (3 veces)
E --------------------------------|

G ----10-10-------------------------------------------------|
D -10-----------8-8-----8--6-------6-5------5-3--1----------|
A ----------8-8------6--------6-4-------5-3--------4--3-3-3-|
E ----------------------------------------------------------|

Canción (2 veces):

G -----------|
D ---10-10---|
A -8---------| (3 veces)
E -----------|

G --------|
D ---8-8--|
A -8------|
E --------|

G --------|
D ---8-8--|
A -6------| (3 veces)
E --------|

G ---------|
D ---6-6---|
A -6-------|
E ---------|

G --------|
D ---6-6--|
A -4------| (3 veces)
E --------|

G --------|
D ---5-5--|
A -4------|
E --------|

G ---------|
D ---5-5---|
A -3-----3-| (4 veces)
E ---------|

Después de la segunda vez, tocar esto:

G ---------------------------------------|
D ---10-10-----8------8-6-----6-5-----5--|
A -8-------8-8---8--6-----6-4-----5-3----|
E ---------------------------------------|

G --------------------------|
D -3--1---------------------|
A -------4--3--3-4-3---8-8--|
E --------------------------|

Coro/Solo de trombones:

G ----------8-------------10--|
D ------8-8---8-----10-10-----|
A -7-6----------7-8-----------| (4 veces)
E ----------------------------|

G --------------------------------|
D ------8-8----8------10-10----8--|
A -7-6-------6---6-8---------8----| (4 veces)
E --------------------------------|

Solo de bongoes y metales

G -------|
D -10----|
A ----8--|
E -------|

G -----------------10-------|
D ---8----------10----10----|
A -6---6---6--8----------8--| (2 veces)
E -------6------------------|

G ---------------------------|
D -8-----8---------10--------|
A ---8-6---6---6-8----8--8---| (Varias veces)
E -----------8---------8-----|

Volver a tocar el coro y los solos hasta llegar al final.

Final:

G ---------------------------------------|
D ----------------------------------3-3--|
A -8--6--4--3--3-4-3--3-4-3--3-4-3-------|
E ---------------------------------------|

Esto es todo amigos!!! Oigan bien la canción, se vale improvisar
pues esto es latin jazz y un jazz sin improvisación no es jazz.
Espero que les guste, sean el alma de las fiestas. CUIDENSE, DIOS
LOS BENDIGA Y HASTA LA PRÓXIMA!!!
Suggest correction
Give kudos to tab author, rate the tab!
1 2 3 4 5
comments
print report bad tab
guest
You may want to rate the tab now too:
select rating
Wanna post a correction for this tab? Suggest correction