Oops, an error
Loading. Please wait.

Angie Bass Tab

2,692 views 3 this week
no commentswrite comment
1 2 3 4 5
3 more votes to show rating
add to favorites
launch autoscroll
font size
0
reset
guitar tuner
Autoscroll
slow
fast
+/-
esc
set tempo
stop
Help us to improve Ultimate-Guitar.com Take our survey!
×
Author
+++++++++++++++++
| La Ley- Angie |
+++++++++++++++++

Intro:
1.
G|-------------------------------------------|
D|-------------------------------------------|
A|--------------------------5-5--3-33-3-32-2-|
E|-5-55-5-55-0-00-0-07-3-33----5-------------|

Verse
"Oh Angie.. Angie.." x2
2.
G|-------------------------------------------|
D|-------------------------------------------|
A|--------------------------5-5--3-33-3-32-2-|
E|-5-55-5-55-0-00-0-07-3-33----5-------------|

"With no loving in our souls.."
3.
G|-------------------------------------------|
D|---------------------------3-3-------------|
A|------------5-53------3-33----3------------|
E|-3-33-03-33------5-55-----------3-33-03-33-|

"Angie.."
4.
G|-------------------------------------------|
D|-------------------------------------------|
A|----5--7-5----5--7-5----5--7-5----5--7-5---|
E|--55-5----5--5-5----0--0-0----0--0-0----3--|

--> 1:09
5.
G|------------------------------|
D|------55-320------------------|
A|---35--------3--03-03-03-32---|
E|-33------------3--3--3--------|

"Oh Angie.. Angie.." x3
6.
G|-------------------------------------------|
D|-------------------------------------------|
A|--------------------------5-5--3-33-3-32-2-|
E|-5-55-5-55-0-00-0-07-3-33----5-------------|

"All the dreams we held so close.."
7.
G|-------------------------------------------|
D|---------------------------3-3-------------|
A|------------5-53------3-33----3------------|
E|-3-33-03-33------5-55-----------3-33-03-33-|

"Angie..."
8.
G|-------------------------------------------|
D|-------------------------------------------|
A|----5--7-5----5--7-5----5--7-5----5--7-5---|
E|--55-5----5--5-5----0--0-0----0--0-0----3--|

G|------------------------------|
D|------55-320------------------|
A|---35--------3--03-03-03-32---|
E|-33------------3--3--3--------|

G|-------------------------------------------|
D|-------------------------------------------|
A|----5--7-5----5--7-5----5--7-5----5--7-5---|
E|--55-5----5--5-5----0--0-0----0--0-0----3--|

G|------------------------------|
D|------55-320------------------|
A|---35--------3--03-03-03-32---|
E|-33------------3--3--3--------|

"Angie, I still love you baby.." x3
9.
G|---------------------|
D|---------------------|
A|-5-55-5-55---------3-|
E|-----------5-55-5-5--|

"Come on baby dry your eyes.."
10.
G|---------------------|
D|------3-3------------|
A|-3-33----3-5-55-5-55-|
E|---------------------|

Lyrics:

Oh Angie, Angie..
When will those dark clouds disappear
Angie, Angie...
When will it lead us from here...

With no loving in our souls
And no money in our coats
You can say we're satisfied

Oh Angie.. Angie...
Oooh..

Oh Angie, Angie..
You can't say we never tried
Oh Angie, you're beautifull
Ain't it time we say GoodBye
Oh Angie.. Still love you
Remember all those nights we cried

All the dreams we held so close
Seem to all go up in smoke
Let me whisper in you ear

Oh Angie.. Angie...

Angie...Ooh ooh...

But Angie, I still love you baby
And everywhere I look I see your eyes
There ain't no woman that comes close to you
Come on baby dry your eyes...

Oh Angie, Angie
They cant say we never tried
Angie, Angieee....
Ain't it good to be alive
Angie... Still love you..
Remember all those nights we cried...

+++++++++++++++++++++++++++++++++
| RaiLeff                       |
| Underground__Dora@Hotmail.Com |
+++++++++++++++++++++++++++++++++
Suggest correction
Give kudos to tab author, rate the tab!
1 2 3 4 5
comments
print report bad tab
guest
You may want to rate the tab now too:
select rating
Wanna post a correction for this tab? Suggest correction