Oops, an error
Loading. Please wait.

Gavilan O Paloma Tab

269 views 1 this week
no commentswrite comment
1 2 3 4 5
3 more votes to show rating
add to favorites
launch autoscroll
font size
0
reset
how to read this tab
guitar tuner
×
Best way to learn
"Gavilan O Paloma"
Autoscroll
slow
fast
+/-
esc
set tempo
stop
Original:Jose Jose
Cover: La lupita
Transcripcion: Kemalos Rules !!!!


Sas chavos esta rola ultimamente la traigo mucho en la cabeza
 y no la puedo sacar mas que en forma de tablatura jajaja es
un cover de la lupita del poderoso principe de la cancion
Jose Jose, espero la disfruten.

NOTA IMPORTANTE !!!!!

Esta cancion el acompañamiento esta completo pero la lupita
no toca todos los acordes y no esta rasgueando todo el tiempo
escuchen bien que hay una lira limpia que en algunas partes
rasguea tipo ska y otra que eventualmente da un rasgueo con
un efecto de "Delay" para que ustedes adapten bien la armonia
de su guitarra


Riff guitarra electrica con un ligero distor

e|--------------
B|-----6--------
G|-5/7---5-7----     x 3
D|--------------
A|--------------
E|--------------

e|-------------5-
B|-----6-------5-
G|-5/7---5-7-6-7-     x 1
D|---------------
A|---------------
E|---------------


A#
No dejabas de mirar estabas sola

                          F
completamente bella y sensual

Cm                                  F
algo me arrastro hacia ti como una ola.

e|--------------------------------
B|----------------------------6~ -
G|--------------------------------
D|--------------------------------
A|--------------------------------
E|--------------------------------

  Cm           D#         F7
y fui y te dije hola, que tal...

                              (Adorno)
                          e|----------
                          B|-10-------
                          G|----10-7--


A#
Esa noche entre tus brazos cai en la trampa

  A#maj7                     Cm
cazaste al aprendiz de seductor

                              F
y me diste de comer sobre tu palma

e|--------------------------------
B|----------------------------6~ -
G|--------------------------------
D|--------------------------------
A|--------------------------------
E|--------------------------------

    Cm          D#          F
haciéndome tu humilde servidor.
                             (Adorno)
                          e|----------
                          B|-10-------
                          G|----10-7--


(Adorno previo)

e|-5-5-5-5--
B|-6-6-6-6--
G|-5-5-5-5--
D|----------
A|----------
E|----------


*************************| CORO |***************************
                                                           *
                                                           *
                                                           *
                                                           *
 A#                                                        *
Amiga,                                                     *
                   A#maj7                                  *
hay que ver cómo es el amor                                *
                        Fm    A#7                          *
que envuelve a quien lo toma                               *
             D#                                            *
gavilán o paloma.                                          *
      Cm                                                   *
Pobre tonto                                                *
               Dm                                          *
ingenuo charlatán,                                         *
          Cm                                               *
que fui paloma                                             *
        D#           F7                                    *
por querer ser gavilán.                                    *
                                                           *
                     (Adorno solo se ahce en este coro)    *
                       e|----------                        *
                       B|-10-------                        *
                       G|----10-7--                        *
                                                           *
************************************************************


Riff guitarra electrica con un ligero distor

e|--------------------6----
B|-----6------------6---6--
G|-5/7---5-7----5/7--------
D|-------------------------
A|-------------------------
E|-------------------------


A#
Fui bajando lentamente tu vestido
                        F
y tú no me dejaste ni hablar,
Cm                          F
solamente suspirabas te nececito,

e|--------------------------------
B|----------------------------6~ -
G|--------------------------------
D|--------------------------------
A|--------------------------------
E|--------------------------------

   Cm         D#      F
abrázame más fuerte, más...
                         (Adorno)
                       e|----------
                       B|-10-------
                       G|----10-7--

A#
al mirarte me sentí desengañado
                      Cm
sólo me dio frío tu calor
                                   F
lentamente te solté de entre mis brazos

e|--------------------------------
B|----------------------------6~ -
G|--------------------------------
D|--------------------------------
A|--------------------------------
E|--------------------------------

  Cm           D#           F
y dije estate quieta por favor.
                              (Adorno)
                           e|----------
                           B|-10-------
                           G|----10-7--


(Adorno previo)

e|-5-5-5-5--
B|-6-6-6-6--
G|-5-5-5-5--
D|----------
A|----------
E|----------

-------------| Coro x2 | -------------------


A#
No dejabas de mirar [amiga]  x 4


******************| Acordes usados |*********************

   A#    F     Cm  A#maj7  F7   D#    Dm

e|-6-----1-----3-----1-----1-----6-----1----
B|-6-----1-----4-----3-----1-----8-----3----
G|-7-----2-----5-----2-----2-----8-----2----
D|-8-----3-----5-----3-----1-----8-----0----
A|-8-----3-----3-----1-----3-----6-----0----
E|-6-----1-----3-----1-----1-----6-----0----

*********************************************************


Esta rola esta dedicada a una mujer que me dejo por un mariachi
jajaja espero algun dia se arrepienta y k yo ya este muy lejos
y sienta lo k yo siento !!!

Cuanlkier comentario, felicitacion, duda o mentada de madre
mandenmela a mi correo oskir666_1@

Y k viva el pin$" rock carajo !!!!
Suggest correction
Give kudos to tab author, rate the tab!
1 2 3 4 5
comments
print report bad tab
guest
You may want to rate the tab now too:
select rating
Wanna post a correction for this tab? Suggest correction