Oops, an error
Loading. Please wait.

Ja Ja Ja Bass

118 views 1 this week
no commentswrite comment
1 2 3 4 5
3 more votes to show rating
add to favorites
×
Save as Personal and add changes to this tab that will be seen only by you. Learn more ›
×
You can save this tab as Personal to edit and correct it or add notes. All changes will be seen only by you. Learn more »
save as personal
new!
launch autoscroll
font size
0
reset
guitar tuner
Autoscroll
slow
fast
+/-
esc
set tempo
stop
Que tal banda es la primera tab que hago
y el motivo es que la tab que esta no esta muy bien
espero les sirva!! saludos.


El intro empieza con lira, despues la bateria y despues el bajo con esto:

G-----------------------------------------------
D-----------------------------------------------
A-------3---3-1---3-3---3-1---------------------
E-----------------------------------------------

se repite varias veces y luego empiezan los primeros 2 versos y el bajo
mantien la misma figura...(recuerden matizar para que se escuche bonito jiji)


Me quieren castigar y no me.....
G-----------------------------------------------
D----------------------------------------------- (Repitan las veces que sean
A-------3---3-1---3-3---3-1---------------------  necesarias)
E-----------------------------------------------


Despues de los dos versos entra el precoro, en esta parte el bajo
hace esto:

Lero Lero......        Lero Lero....    Lero lero lero lero....

G---------------------------------------------------------------
D---------------------------------------------------------------
A----x-3-x-3-x-3-x-3----x-3-x-3-x-3-3-3------3-3-3-3---3-3-3-3--
E---------------------------------------------------------------

Nota:No estoy convencido de que sea en esta cuerda me parece que el bajista
     de la lupita tiene un bajo de 5 cuerdas lo que le permite tocar un C(DO)
     mas grabe.

Nota 2: Las "x" las pongo para indicar que el bajo entra a contra
        del tiempo fuerte, es decir, que entran a poquito después
        que los demás instrumentos(esto lo imitar un poco efecto
        del sonido de un bajo de 5 cuerdas) en caso de que tengas
        bajo de 5 cuerdas puede tocar el do grabe sn problemas.


JA JA JA que risa me da.....

G-----------------------------------------------
D----------------------------------------------- (Dos veces)
A-------3---3-1---3-3---3-1---------------------
E-----------------------------------------------

Luego hay unos coritos

Ahhhh!!  Ahhhh!! Ahhhh! Ahhh!

G-----------------------------------------------
D--------------------3-3---3-4-4-3-6----------- (Dos veces)
A----3-3---3-6-6---6----------------------------
E-----------------------------------------------


Se repite todo lo anterior una ves, es decir, se toca dos veces.

Tuviste mucho tiempo para pedir perdón....
G-----------------------------------------------
D-----------------------------------------------
A-------3---3-1---3-3---3-1---------------------
E-----------------------------------------------


Lero Lero......        Lero Lero....    Lero lero lero lero....

G---------------------------------------------------------------
D---------------------------------------------------------------
A----x-3-x-3-x-3-x-3----x-3-x-3-x-3-3-3------3-3-3-3---3-3-3-3--
E---------------------------------------------------------------


JA! JA! Que risa me da!!  Lero Lero lero lero

G-----------------------------------------------
D----------------------------------------------- (Tres  veces)
A--3---3-1---3-3---3-1------3-3-3-3-3-3-3-3-----
E-----------------------------------------------


ESo es todo ojala haya sido de su agrade y de ayuda Saludos!!
Suggest correction
Give kudos to tab author, rate the tab!
1 2 3 4 5
comments
print report bad tab
guest
Wanna post a correction for this tab? Suggest correction