Oops, an error
Loading. Please wait.

Ja Ja Ja Tab

version 2
version 2

Whole song

135 views 1 this week
no commentswrite comment
1 2 3 4 5
3 more votes to show rating
add to favorites
launch autoscroll
font size
0
reset
how to read this tab
guitar tuner
×
Best way to learn
"Ja Ja Ja"
Autoscroll
slow
fast
+/-
esc
set tempo
stop
Bueno esta es mi version de la rola
hay cosas que se parecen a las otras
pero repito es mi version y claro que
yo considero que es la mejor espero que
voten y asi nos daremos cuenta
ok ahora si¡¡¡¡¡¡


ESTOS SON LO ACORDES QUE UTILIZO
EL SEGUNDO NO SE COMO SE LLAMA
ASI QUE LO VAMOS A BAUTIZAR COMO B*
DE TODAS FORMAS NO LLEVA RITMO SOLO SON
REMATES EN ESOS ACORDES ESCUCHEN BIEN LA CANCION
PARA QUE ENTIENDAN DE QUE HABLO:

Cm    B*
E-3-  E-X-
B-4-  B-X-
G-5-  G-X-
D-5-  D-8-
A-3-  A-9-
E-3-  E-7-


Intro y fondo:
e-----------------------------
B-----------------------------
G----------------------------- x6
D------------5-5-5---------4--
A--3-6-3-6-3-------3-6-3-6----
E-----------------------------


Hector:
         Cm                         B*
Me quieres castigar y no me voy a dejar
           Cm                            B*
tu quieres que me calle y no me voy a callar
         Cm                           B*
hiciste lo imposible por hacerme infeliz
             Cm                        B*
pero yo gozo bien sabrozo como una lombris.

Rosa:
           Cm                             B*
yo soy la que yo creo que tu quieres que sea
          Cm                            B*
estoy dispuesta a todo para ser tu albacea
         Cm                        B*
puedo ser una santa puedo ser una fiera
         Cm                          B*
y lo unico que quiero es bajarte la feria


(Para el coro puse encima de cada fig. la letra que se canta cuando
se toca esa fig. solo escuchenla con atencion para ubicar el ritmo
con que se toca)

Coro:

lero lero lero lero lero lero lero lero lero lero lero lero
e---------------------------------------------3-3-6-6-7-7-88888888888
B---------------------------------4-4-6-6-7-7------------------------
G---------------------3-3-4-4-5-5------------------------------------
D---------3-3-4-4-5-5------------------------------------------------
A-3-3-6-6------------------------------------------------------------
E--------------------------------------------------------------------


ja ja que risa me da....ja ja ja que risa me da
D-1-1-1-1-0-0-0-0-1-1-1-1-0-0-0-0--
A----------------------------------
E----------------------------------

haaa....haaa....
D-----------------3-3-3-3-4-3------
A-3-3-3-3-6-6-6-6-------------6-3-- x2
E----------------------------------


Rosa:
       Cm                                 B*
primero frente al padre despues frente al juez
        Cm                      B*
firmaste tu centesia de la muerte
       Cm                         B*
primero va la casa despues el colchon
       Cm                             B*
y luego van las joyas que tu abuela te dio

Hector:
        Cm                        B*
la risa fulminante te quiere alcanzar
            Cm                         B*
no importa a donde vayas te va a encontrar
         Cm                     B*
la sed de mi venganza te hizo pagar
                 Cm                         B*
pero la sangre de mi abuela no te va a perdonar

Coro:

Hector:
         Cm                        B*
tuviste mucho tiempo para pedir perdon
            Cm                         B*
pero quisiste hacerle caso a tu vil ambicion
            Cm                            B*
ahora ya no soy el mismo ya conosco tu sinismo
           Cm                                B*
me quisiste ver la cara y te salio de la chingada


El outro es muy parecido al coro pero se repite varias veces
y no se hace completo aqui esta:

Outro:
lero lero                         lero lero
e---------------------------------------------3-3-6-6-7-7-8888-------
B---------------------------------4-4-6-6-7-7------------------------
G---------------------3-3-4-4-5-5------------------------------------
D---------3-3-4-4-5-5------------------------------------------------
A-3-3-6-6------------------------------------------------------------
E--------------------------------------------------------------------


lero lero lero lero lero lero lero lero
D-1-1-1-1-0-0-0-0-1-1-1-1-0-0-0-0--
A----------------------------------
E----------------------------------

ja ja que risa me da
e------------------------------------
B------------------------------------
G---------------------3-3-4-4-5-5----
D---------3-3-4-4-5-5----------------
A-3-3-6-6----------------------------
E------------------------------------

lero lero lero lero lero lero lero lero
D-1-1-1-1-0-0-0-0-1-1-1-1-0-0-0-0--
A----------------------------------
E----------------------------------

ja ja que risa me da
e------------------------------------
B------------------------------------
G---------------------3-3-4-4-5-5----
D---------3-3-4-4-5-5----------------
A-3-3-6-6----------------------------
E------------------------------------

lero lero lero lero lero lero lero lero
D-1-1-1-1-0-0-0-0-1-1-1-1-0-0-0-0--
A----------------------------------
E----------------------------------

ja ja que risa me da
e------------------------------------
B------------------------------------
G---------------------3-3-4-4-5-5----
D---------3-3-4-4-5-5----------------
A-3-3-6-6----------------------------
E------------------------------------

lero lero lero lero lero lero lero lero
D-1-1-1-1-0-0-0-0-1-1-1-1-0-0-0-0--
A----------------------------------
E----------------------------------


los acordes que se escuchan en decendente son asi

e---8--7--6--5----------------------------
B--8--7--6--5-----------------------------
G-9--8--7--6------------------------------

FIN¡¡¡¡¡¡


BUENO AHI ESTA LA ROLA TAL VEZ PARESCA UN POCO CONFUSA
AUNQUE TRATO DE TRANSCRIBIRLA LO MAS CLARO POSIBLE
MUY BUENA ROLA DE UNA EXCELENTE BANDA DE WANATOS MI TIERRA
¡¡¡¡¡¡¡¡¡¡¡QUE VIVA EL ROCK NACIONAL¡¡¡¡¡¡¡¡¡¡¡¡¡¡
¡¡¡¡¡¡¡¡¡¡¡¡¡¡¡¡ARRIBA WANATOS¡¡¡¡¡¡¡¡¡¡¡¡¡¡¡¡¡¡¡¡


Dudas, Comentarios o Aclaraciones

fashionstage@
Suggest correction
Give kudos to tab author, rate the tab!
1 2 3 4 5
comments
print report bad tab
guest
You may want to rate the tab now too:
select rating
Wanna post a correction for this tab? Suggest correction