Oops, an error
Loading. Please wait.

Me Estoy Enamorando Bass Tab

124 views 3 this week
no commentswrite comment
1 2 3 4 5
3 more votes to show rating
add to favorites
launch autoscroll
font size
0
reset
guitar tuner
Autoscroll
slow
fast
+/-
esc
set tempo
stop
Help us to improve Ultimate-Guitar.com Take our survey!
×
Esta lindo esta cancion

Intro
E|----|---|---|---|---|-1-|----|
A|--1-|-3-|---|-1-|-3-|---|-1--|
D|----|---|-3-|---|---|---|----|
G|----|---|---|---|---|---|----|

Me has hecho
E|-|---|---|-|---|----|
A|-|---|-1-|-|---|-1--|
D|-|-3-|---|-|-3-|----|
G|-|---|---|-|---|----|

No puedo
E|----|-1-|---|-|---|-1-|----|
A|--3-|---|-1-|-|-3-|---|-1--|
D|----|---|---|-|---|---|----|
G|----|---|---|-|---|---|----|

Me estoy enamorando
E|----|-------|---|-|---|-1h3-1-|----|
A|--3-|-------|-1-|-|-3-|-------|-1--|x2
D|----|-3h5-3-|---|-|---|-------|----|
G|----|-------|---|-|---|-------|----|

Pero de que manera
E|----|---|---|----|
A|--3-|-1-|-3-|-1--|
D|----|---|---|----|
G|----|---|---|----|

No puedo estar
E|----|-----1-|---|-|---|-------|----|
A|--3-|----3--|-1-|-|-3-|----3--|-1--|
D|----|-123---|---|-|---|-123-3-|----|
G|----|-------|---|-|---|-------|----|

Me estoy enamorando
E|----|-------|---|-|---|-1h3-1-|----|
A|--3-|-------|-1-|-|-3-|-------|-1--|x2
D|----|-3h5-3-|---|-|---|-------|----|
G|----|-------|---|-|---|-------|----|

E|--3-|--------|
A|----|-3-3-3--|
D|----|--------|
G|----|--------|

Me estoy enamorando
E|----|-------|---|-3--|---|-3h5-3-|----|
A|--5-|-------|-3-|--3-|-5-|-------|-3--|
D|----|-5h7-5-|---|----|---|-------|----|
G|----|-------|---|----|---|-------|----|

E|-------------|
A|--33---------|
D|-----22-5-3--|
G|-------------|

Me estoy enamorando
E|----|-------|---|-3--|---|-3h5-3-|---|-3---|
A|--5-|-------|-3-|--3-|-5-|-------|-3-|--3--|x3
D|----|-5h7-5-|---|----|---|-------|---|-----|
G|----|-------|---|----|---|-------|---|-----|

Yo no me lo

E|----|-3h5-3-|----|
A|--5-|-------|-3--|
D|----|-------|----|
G|----|-------|----|

Fin
E|----|-3-|----|
A|--5-|---|-3--|
D|----|---|----|
G|----|---|----|

atte. miauricio gatolar
Suggest correction
Give kudos to tab author, rate the tab!
1 2 3 4 5
comments
print report bad tab
guest
You may want to rate the tab now too:
select rating
Wanna post a correction for this tab? Suggest correction