Oops, an error
Loading. Please wait.

La Confessione tab

2,071 views 45 this week
1 commentread comment
1 2 3 4 5
2 more votes to show rating
add to favorites
×
Save as Personal and add changes to this tab that will be seen only by you. Learn more ›
×
You can save this tab as Personal to edit and correct it or add notes. All changes will be seen only by you. Learn more »
launch autoscroll
font size
0
reset
how to read this tab
guitar tuner
edit
Autoscroll
slow
fast
+/-
esc
set tempo
stop
About this tab version
Ricavata ad orecchio dal video ufficiale. Il tempo degli arpeggi e' 1-2-3 1-2-3, per il resto dovrebbe essere tutto molto semplice. (Ho scritto tutto in italiano, tanto sono poco conosciuti fuori dalla Campania, figuriamoci fuori dall'Italia). Was this info helpful? Yes No
[Intro]

Guitar 1
   Am       F        C                   Am       F        C
e|----0--------1--------0------0-------|----0--------1--------0------0---------|
B|----1--1-----1--1-----1--1---1--3--1-|----1--1-----1--1-----1--1---1--3--1---|
G|----2--2-----2--2-----0--0------0--0-|----2--2-----2--2-----0--0------0--0---|
D|-------2--------3--------2-----------|-------2--------3--------2-------------|
A|-0-----------------3-----------------|-0-----------------3-------------------|
E|----------1--------------------------|----------1----------------------------|
 |
 | Guitar 2
e|-------------------------------------|-0-----------------0h1--0-----1-0------|
B|-----------------------------------1-|----------------------------------3--1-|
G|------------------------------0h2----|---------------------------------------|
D|-------------------------------------|---------------------------------------|
A|-------------------------------------|---------------------------------------|
E|-------------------------------------|---------------------------------------|



Guitar 1
   Am       F        C                   Am       F        C
e|----0--------1--------0------0-------|----0--------1-----0---------------|
B|----1--1-----1--1-----1--1---1--3--1-|----1--1-----1--1--1---------------|
G|----2--2-----2--2-----0--0------0--0-|----2--2-----2--2--0---------------|
D|-------2--------3--------2-----------|-------2--------3--2---------------|
A|-0-----------------3-----------------|-0-----------------3---------------|
E|----------1--------------------------|----------1--------0---------------|
 |
 | Guitar 2
e|-------------------------------------|-0--------0--------0---------------|
B|----------1h3--1---2p0---------------|-1--------1--------1---------------|
G|-----------------------2p0-----------|-2--------2--------0---------------|
D|----------------------------3--------|-2--------3--------2---------------|
A|-------------------------------------|-0--------3--------3---------------|
E|-------------------------------------|-0--------0--------0---------------|


[Strofa 1]

Guitar 1
   Am       F        C                   Am       F        C
e|----0--------1--------0-----0-------|----0--------1--------0------0---------|
B|----1--1-----1--1-----1--1--1--3--1-|----1--1-----1--1-----1--1---1--3--1---|
G|----2--2-----2--2-----0--0-----0--0-|----2--2-----2--2-----0--0------0--0---|
D|-------2--------3--------2----------|-------2--------3--------2-------------|
A|-0-----------------3----------------|-0-----------------3-------------------|
E|----------1-------------------------|----------1----------------------------|
  "È semp' 'a stessa storij..."         "Quanno m'assett' e aspett'..."

 Guitar 1
   Dm       E7       Am                 F        E7       Am 
e|----1--------0--------0-----0-------|----1--------0--------0------0-------------|
B|----3--3-----0--0-----1--1--1--3--1-|----1--1-----0--0-----1--1---1--3--1-------|
G|----2--2-----1--1-----2--2-----2--2-|----2--2-----1--1-----2--2------2--2-------|
D|-0-----0--------0--------2----------|-------3--------0--------2-----------------|
A|-------------------0----------------|-------------------0-----------------------|
E|----------0-------------------------|-1---------0-------------------------------|
 | "E pur si o'mariuol m'confess..."    "O' guard rint a l'uocchij stanc..."
 | 
 |  Guitar 2
e|------------------------------------|-----------------------------0-------------|
B|------------------------------------|-------------------------------3-1-1-0-----|
G|------------------------------------|-------------------------------------------|
D|------------------------------------|-----------------------------------------2-|
A|------------------------------------|-------------------------------------------|
E|------------------------------------|-------------------------------------------|

Guitar 1
   Am       F        C                   Am       F        C
e|----0--------1--------0------0-------|----0--------1--------0------0---------|
B|----1--1-----1--1-----1--1---1--3--1-|----1--1-----1--1-----1--1---1--3--1---|
G|----2--2-----2--2-----0--0------0--0-|----2--2-----2--2-----0--0------0--0---|
D|-------2--------3--------2-----------|-------2--------3--------2-------------|
A|-0-----------------3-----------------|-0-----------------3-------------------|
E|----------1--------------------------|----------1----------------------------|
 | "Sapess l'ata sera che m'è ditt..."   "Ch'è asciut incint e stu criatur..."
 |
 | Guitar 2
e|-0--------1--------0-----------------|-0--------1--------0-------------------|
B|-1--------1--------1-----------------|-1--------1--------1-------------------|
G|-2--------2--------0-----------------|-2--------2--------0-------------------|
D|-2--------3--------2-----------------|-2--------3--------2-------------------|
A|-0--------3--------3-----------------|-0--------3--------3-------------------|
E|-0--------1--------0-----------------|-0--------1--------0-------------------|
 

Guitar 1
   Dm       E7       Am                 F        E7       Am 
e|----1--------0--------0-----0-------|----1--------0--------0------0----------|
B|----3--3-----0--0-----1--1--1--3--1-|----1--1-----0--0-----1--1---1--3--1----|
G|----2--2-----1--1-----2--2-----2--2-|----2--2-----1--1-----2--2------2--2----|
D|-0-----0--------0--------2----------|-------3--------0--------2--------------|
A|-------------------0----------------|-------------------0--------------------|
E|----------0-------------------------|-1---------0----------------------------|
 | "E sapenn che iss va scarfann..."    "L'agg'mannat a casa sul..."       "Comm
 |
 | Guitar 2
e|-1--------0--------0----------------|-1--------0--------0-------------------|
B|-3--------0--------1----------------|-1--------0--------1-------------------|
G|-2--------1--------2----------------|-2--------1--------2-------------------|
D|-0--------0--------2----------------|-3--------0--------2-------------------|
A|-0--------2--------0----------------|-3--------2--------0-------------------|
E|-0--------0--------0----------------|-1--------0--------0-------------------|

 
 [Ritornello]
Guitar 1
   F       E7       Am                 F        E7       Am 
e|----1--------0--------0-----0-------|----1---------0--------0------0----------|
B|----1--1-----0--0-----1--1--1--3--1-|----1--1------0--0-----1--1---1--3--1----|
G|----2--2-----1--1-----2--2-----2--2-|----2--2------1--1-----2--2------2--2----|
D|-------3--------0--------2----------|-------3---------0--------2--------------|
A|-------------------0----------------|--------------------0--------------------|
E|-1--------0-------------------------|-1---------0-----------------------------|
 | s'fa? Comm s'fa?..."      "Pe campà meglij te a cunfessà"         "Ma sti 
 |
 | Guitar 2
e|-1--------0--------0----------------|-1---------0--------0-------------------|
B|-3--------0--------1----------------|-1---------0--------1-------------------|
G|-2--------1--------2----------------|-2---------1--------2-------------------|
D|-0--------0--------2----------------|-3---------0--------2-------------------|
A|-0--------2--------0----------------|-3---------2--------0-------------------|
E|-0--------0--------0----------------|-1---------0--------0-------------------|



   F       E7       Am                 F        E7       Am 
e|----1---------0--------0-----0-------|-1---------0---------0------------------|
B|----1--1------0--0-----1--1--1--3--1-|-1---------0---------1------------------|
G|----2--2------1--1-----2--2-----2--2-|-2---------1---------2------------------|
D|-------3---------0--------2----------|-3---------0---------2------------------|
A|--------------------0----------------|-3---------2---------0------------------|
E|-1---------0-------------------------|-1---------0---------0------------------|
 | preghiere nun servn..."   "Si fra doij ore stai ancora a sbaglià"
 |
 | Guitar 2
e|-1---------0--------0----------------|-1--------0--------0-------------------|
B|-3---------0--------1----------------|-1--------0--------1-------------------|
G|-2---------1--------2----------------|-2--------1--------2-------------------|
D|-0---------0--------2----------------|-3--------0--------2-------------------|
A|-0---------2--------0----------------|-3--------2--------0-------------------|
E|-0---------0--------0----------------|-1--------0--------0-------------------|


 [Ritornello 2]  Come la strofa 1, solo che la seconda chitarra suona gli accordi più intensamente


Guitar 1
   Am       F        C                   Am       F        C
e|----0--------1--------0-----0-------|----0--------1--------0-----0--------|
B|----1--1-----1--1-----1--1--1--3--1-|----1--1-----1--1-----1--1--1--3--1--|
G|----2--2-----2--2-----0--0-----0--0-|----2--2-----2--2-----0--0-----0--0--|
D|-------2--------3--------2----------|-------2--------3--------2-----------|
A|-0-----------------3----------------|-0-----------------3-----------------|
E|----------1-------------------------|----------1--------------------------|
 | "Maronn e si v'raccuntass..."       "Ca s'è jucat pur l'anm int..."
 |
 | Guitar 2
e|-0--0--0--1--1--1--0--0--0--0--0--0-|-0--0--0--1--1--1--0--0--0--0--0--0--|
B|-1--1--1--1--1--1--1--1--1--1--3--1-|-1--1--1--1--1--1--1--1--1--1--3--1--|
G|-2--2--2--2--2--2--0--0--0--0--0--0-|-2--2--2--2--2--2--0--0--0--0--0--0--|
D|-2--2--2--3--3--3--2--2--2--2--2--2-|-2--2--2--3--3--3--2--2--2--2--2--2--|
A|-0--0--0--3--3--3--3--3--3--3--3--3-|-0--0--0--3--3--3--3--3--3--3--3--3--|
E|-0--0--0--1--1--1--0--0--0--0--0--0-|-0--0--0--1--1--1--0--0--0--0--0--0--|

 

 Guitar 1
   Dm       E7       Am                 F        E7       Am 
e|----1--------0--------0-----0-------|----1-------0--------0------0--------|
B|----3--3-----0--0-----1--1--1--3--1-|----1--1----0--0-----1--1---1--3--1--|
G|----2--2-----1--1-----2--2-----2--2-|----2--2----1--1-----2--2------2--2--|
D|-0-----0--------0--------2----------|-------3-------0--------2------------|
A|-------------------0----------------|------------------0------------------|
E|----------0-------------------------|-1--------0--------------------------|
 | "Si avess rat rett'o'padr foss..."  "Ajer ha accultellt a n'omm..."
 | 
 |  Guitar 2
e|-1--1--1--0--0--0--0--0--0--0--0--0-|-1--1--1--0--0--0--0--0--0--0--0--0--|
B|-3--3--3--0--0--0--1--1--1--1--3--1-|-1--1--1--0--0--0--1--1--1--1--3--1--|
G|-2--2--2--1--1--1--2--2--2--2--2--2-|-2--2--2--1--1--1--2--2--2--2--2--2--|
D|-0--0--0--0--0--0--2--2--2--2--2--2-|-3--3--3--0--0--0--2--2--2--2--2--2--|
A|-0--0--0--2--2--2--0--0--0--0--0--0-|-3--3--3--2--2--2--0--0--0--0--0--0--|
E|-0--0--0--0--0--0--0--0--0--0--0--0-|-1--1--1--0--0--0--0--0--0--0--0--0--|

Guitar 1
   Am       F        C                   Am       F        C
e|----0--------1--------0-----0-------|----0--------1--------0-----0--------|
B|----1--1-----1--1-----1--1--1--3--1-|----1--1-----1--1-----1--1--1--3--1--|
G|----2--2-----2--2-----0--0-----0--0-|----2--2-----2--2-----0--0-----0--0--|
D|-------2--------3--------2----------|-------2--------3--------2-----------|
A|-0-----------------3----------------|-0-----------------3-----------------|
E|----------1-------------------------|----------1--------------------------|
 | "Invece stammatin o'viecchij..."    "Avere due rapporti al mese..."
 |
 | Guitar 2
e|-0--0--0--1--1--1--0--0--0--0--0--0-|-0--0--0--1--1--1--0--0--0--0--0--0--|
B|-1--1--1--1--1--1--1--1--1--1--3--1-|-1--1--1--1--1--1--1--1--1--1--3--1--|
G|-2--2--2--2--2--2--0--0--0--0--0--0-|-2--2--2--2--2--2--0--0--0--0--0--0--|
D|-2--2--2--3--3--3--2--2--2--2--2--2-|-2--2--2--3--3--3--2--2--2--2--2--2--|
A|-0--0--0--3--3--3--3--3--3--3--3--3-|-0--0--0--3--3--3--3--3--3--3--3--3--|
E|-0--0--0--1--1--1--0--0--0--0--0--0-|-0--0--0--1--1--1--0--0--0--0--0--0--|

 

 Guitar 1
   Dm       E7       Am                 F        E7       Am 
e|----1--------0--------0-----0-------|----1-------0--------0------0--------|
B|----3--3-----0--0-----1--1--1--3--1-|----1--1----0--0-----1--1---1--3--1--|
G|----2--2-----1--1-----2--2-----2--2-|----2--2----1--1-----2--2------2--2--|
D|-0-----0--------0--------2----------|-------3-------0--------2------------|
A|-------------------0----------------|------------------0------------------|
E|----------0-------------------------|-1--------0--------------------------|
 | "E dopp che m'è cunfessat..."       "Se n'è ascut ricenn..."      "Comm 
 | 
 |  Guitar 2
e|-1--1--1--0--0--0--0--0--0--0--0--0-|-1--1--1--0--0--0--0--0--0--0--0--0--|
B|-3--3--3--0--0--0--1--1--1--1--3--1-|-1--1--1--0--0--0--1--1--1--1--3--1--|
G|-2--2--2--1--1--1--2--2--2--2--2--2-|-2--2--2--1--1--1--2--2--2--2--2--2--|
D|-0--0--0--0--0--0--2--2--2--2--2--2-|-3--3--3--0--0--0--2--2--2--2--2--2--|
A|-0--0--0--2--2--2--0--0--0--0--0--0-|-3--3--3--2--2--2--0--0--0--0--0--0--|
E|-0--0--0--0--0--0--0--0--0--0--0--0-|-1--1--1--0--0--0--0--0--0--0--0--0--|



[Ritornello]
Guitar 1
   F       E7       Am                 F        E7       Am 
e|----1--------0--------0-----0-------|----1---------0--------0------0----------|
B|----1--1-----0--0-----1--1--1--3--1-|----1--1------0--0-----1--1---1--3--1----|
G|----2--2-----1--1-----2--2-----2--2-|----2--2------1--1-----2--2------2--2----|
D|-------3--------0--------2----------|-------3---------0--------2--------------|
A|-------------------0----------------|--------------------0--------------------|
E|-1--------0-------------------------|-1---------0-----------------------------|
 | s'fa? Comm s'fa?..."      "Pe campà meglij te a cunfessà"         "Ma sti 
 |
 | Guitar 2
e|-1--1--1--0--0--0--0--0--0--0--0--0-|-1--1--1---0--0--0--0--0--0--0--0--0-----|
B|-3--1--1--0--0--0--1--1--1--1--3--1-|-1--1--1---0--0--0--1--1--1--1--3--1-----|
G|-2--2--2--1--1--1--2--2--2--2--2--2-|-2--2--2---1--1--1--2--2--2--2--2--2-----|
D|-0--3--3--0--0--0--2--2--2--2--2--2-|-3--3--3---0--0--0--2--2--2--2--2--2-----|
A|-0--3--3--2--2--2--0--0--0--0--0--0-|-3--3--3---2--2--2--0--0--0--0--0--0-----|
E|-0--1--1--0--0--0--0--0--0--0--0--0-|-1--1--1---0--0--0--0--0--0--0--0--0-----|



   F       E7       Am                 F        E7       Am 
e|----1---------0--------0-----0-------|-1---------0---------0------------------|
B|----1--1------0--0-----1--1--1--3--1-|-1---------0---------1------------------|
G|----2--2------1--1-----2--2-----2--2-|-2---------1---------2------------------|
D|-------3---------0--------2----------|-3---------0---------2------------------|
A|--------------------0----------------|-3---------2---------0------------------|
E|-1---------0-------------------------|-1---------0---------0------------------|
 | preghiere nun servn..."   "Si fra doij ore stai ancora a sbaglià"
 |
 | Guitar 2
e|-1--1--1--0--0--0--0--0--0--0--0--0-|-1--1--1---0--0--0--0--0--0--0--0--0-----|
B|-3--1--1--0--0--0--1--1--1--1--3--1-|-1--1--1---0--0--0--1--1--1--1--3--1-----|
G|-2--2--2--1--1--1--2--2--2--2--2--2-|-2--2--2---1--1--1--2--2--2--2--2--2-----|
D|-0--3--3--0--0--0--2--2--2--2--2--2-|-3--3--3---0--0--0--2--2--2--2--2--2-----|
A|-0--3--3--2--2--2--0--0--0--0--0--0-|-3--3--3---2--2--2--0--0--0--0--0--0-----|
E|-0--1--1--0--0--0--0--0--0--0--0--0-|-1--1--1---0--0--0--0--0--0--0--0--0-----|


 [Strumentale] Durante l'assolo di tromba la seconda chitarra continua sugli accordi del ritornello

  Guitar 2
e|-1--1--1--0--0--0--0--0--0--0--0--0-|-1--1--1---0--0--0--0--0--0--0--0--0-----|
B|-3--1--1--0--0--0--1--1--1--1--3--1-|-1--1--1---0--0--0--1--1--1--1--3--1-----|
G|-2--2--2--1--1--1--2--2--2--2--2--2-|-2--2--2---1--1--1--2--2--2--2--2--2-----|  X3
D|-0--3--3--0--0--0--2--2--2--2--2--2-|-3--3--3---0--0--0--2--2--2--2--2--2-----|
A|-0--3--3--2--2--2--0--0--0--0--0--0-|-3--3--3---2--2--2--0--0--0--0--0--0-----|
E|-0--1--1--0--0--0--0--0--0--0--0--0-|-1--1--1---0--0--0--0--0--0--0--0--0-----|

La quarta volta il La minore dura una battuta in più  
Guitar 2
e|-1--1--1--0--0--0--0--0--0--0--0--0-|-1--1--1---0--0--0--0--0--0--0--0--0-----|
B|-3--1--1--0--0--0--1--1--1--1--3--1-|-1--1--1---0--0--0--1--1--1--1--3--1-----|
G|-2--2--2--1--1--1--2--2--2--2--2--2-|-2--2--2---1--1--1--2--2--2--2--2--2-----|
D|-0--3--3--0--0--0--2--2--2--2--2--2-|-3--3--3---0--0--0--2--2--2--2--2--2-----|
A|-0--3--3--2--2--2--0--0--0--0--0--0-|-3--3--3---2--2--2--0--0--0--0--0--0-----|
E|-0--1--1--0--0--0--0--0--0--0--0--0-|-1--1--1---0--0--0--0--0--0--0--0--0-----|
 
Guitar 2
e|-0--0--0--0--0--0--0--0--0--0--0--0-|
B|-1--1--1--1--1--1--1--1--1--1--3--1-|
G|-2--2--2--2--2--2--2--2--2--2--2--2-|
D|-2--2--2--2--2--2--2--2--2--2--2--2-|
A|-0--0--0--0--0--0--0--0--0--0--0--0-|
E|-0--0--0--0--0--0--0--0--0--0--0--0-|


[Strofa 3]

Guitar 1
   Am       F        C                   Am       F        C
e|----0--------1--------0-----0-------|----0--------1--------0------0---------|
B|----1--1-----1--1-----1--1--1--3--1-|----1--1-----1--1-----1--1---1--3--1---|
G|----2--2-----2--2-----0--0-----0--0-|----2--2-----2--2-----0--0------0--0---|
D|-------2--------3--------2----------|-------2--------3--------2-------------|
A|-0-----------------3----------------|-0-----------------3-------------------|
E|----------1-------------------------|----------1----------------------------|
  "Ma nun puti immaginà..."            "Unire in matrimonio Rosa..."

 Guitar 1
   Dm       E7       Am                 F        E7       Am 
e|----1--------0--------0-----0-------|----1--------0--------0------0----------1----|
B|----3--3-----0--0-----1--1--1--3--1-|----1--1-----0--0-----1--1---1--3--1------2--|
G|----2--2-----1--1-----2--2-----2--2-|----2--2-----1--1-----2--2------2--2--------2|
D|-0-----0--------0--------2----------|-------3--------0--------2------------0------|
A|-------------------0----------------|-------------------0-------------------------|
E|----------0-------------------------|-1---------0---------------------------------|
 | "A ess ca vint'ann fa..."           "C'o cor a piezz c'aggia avut..."
 | 
 |  Guitar 2
e|------------------------------------|-----------------------------0---------------|
B|------------------------------------|-------------------------------3-1-1-0-------|
G|------------------------------------|---------------------------------------------|
D|------------------------------------|-----------------------------------------2---|
A|------------------------------------|---------------------------------------------|
E|------------------------------------|---------------------------------------------|

Guitar 1
   Am       F        C                   Am       F        C
e|----0--------1--------0------0-------|----0--------1--------0------0---------|
B|----1--1-----1--1-----1--1---1--3--1-|----1--1-----1--1-----1--1---1--3--1---|
G|----2--2-----2--2-----0--0------0--0-|----2--2-----2--2-----0--0------0--0---|
D|-------2--------3--------2-----------|-------2--------3--------2-------------|
A|-0-----------------3-----------------|-0-----------------3-------------------|
E|----------1--------------------------|----------1----------------------------|
 | "E quann cu chiil..."                "M'a ditt 'senza cattiveria..."
 |
 | Guitar 2
e|-0--------1--------0-----------------|-0--------1--------0-------------------|
B|-1--------1--------1-----------------|-1--------1--------1-------------------|
G|-2--------2--------0-----------------|-2--------2--------0-------------------|
D|-2--------3--------2-----------------|-2--------3--------2-------------------|
A|-0--------3--------3-----------------|-0--------3--------3-------------------|
E|-0--------1--------0-----------------|-0--------1--------0-------------------|
 

Guitar 1
   Dm       E7       Am                 F        E7       Am 
e|----1--------0-----0--x----x--x-----|-1--------0--------0--------------------|
B|----3--3-----0--0--1--x----x--x-----|-1--------0--------1--------------------|
G|----2--2-----1--1--2--x----x--x-----|-2--------1--------2--------------------|
D|-0-----0--------0--2--x----x--x-----|-3--------0--------2--------------------|
A|-------------------0--x----x--x-----|-3--------2--------0--------------------|
E|----------0--------0--x----x--x-----|-1--------0--------0--------------------|
 |"L'agg strignut forte..."           "Forse ero troppo vicino"          "Comm
 |
 | Guitar 2
e|-1--------0--------0----------------|-1--------0--------0-------------------|
B|-3--------0--------1----------------|-1--------0--------1-------------------|
G|-2--------1--------2----------------|-2--------1--------2-------------------|
D|-0--------0--------2----------------|-3--------0--------2-------------------|
A|-0--------2--------0----------------|-3--------2--------0-------------------|
E|-0--------0--------0----------------|-1--------0--------0-------------------|


[Ritornello]
Guitar 1
   F       E7       Am                 F        E7       Am 
e|----1--------0--------0-----0-------|----1---------0--------0------0----------|
B|----1--1-----0--0-----1--1--1--3--1-|----1--1------0--0-----1--1---1--3--1----|
G|----2--2-----1--1-----2--2-----2--2-|----2--2------1--1-----2--2------2--2----|
D|-------3--------0--------2----------|-------3---------0--------2--------------|
A|-------------------0----------------|--------------------0--------------------|
E|-1--------0-------------------------|-1---------0-----------------------------|
 | s'fa? Comm s'fa?..."      "Pe campà meglij m'aggia cunfessà"         "Ma si 
 |
 | Guitar 2
e|-1--1--1--0--0--0--0--0--0--0--0--0-|-1--1--1---0--0--0--0--0--0--0--0--0-----|
B|-3--1--1--0--0--0--1--1--1--1--3--1-|-1--1--1---0--0--0--1--1--1--1--3--1-----|
G|-2--2--2--1--1--1--2--2--2--2--2--2-|-2--2--2---1--1--1--2--2--2--2--2--2-----|
D|-0--3--3--0--0--0--2--2--2--2--2--2-|-3--3--3---0--0--0--2--2--2--2--2--2-----|
A|-0--3--3--2--2--2--0--0--0--0--0--0-|-3--3--3---2--2--2--0--0--0--0--0--0-----|
E|-0--1--1--0--0--0--0--0--0--0--0--0-|-1--1--1---0--0--0--0--0--0--0--0--0-----|



   F       E7       Am                 F        E7       Am 
e|----1--------0-----0----------------|-1---------0--------0------------------|
B|----1--1-----0--0--1----------------|-1---------0--------1------------------|
G|----2--2-----1--1--2----------------|-2---------1--------2------------------|
D|-------3--------0--2----------------|-3---------0--------2------------------|
A|-------------------0----------------|-3---------2--------0------------------|
E|-1--------0--------0----------------|-1---------0--------0------------------|
 | pe vuje ij song o giudice..."        "Cocc' peccat oggi o facc' pur ij"
 |
 | Guitar 2
e|-1--1--1--0--0--0--0----------------|-1---------0--------0------------------|
B|-3--1--1--0--0--0--1----------------|-1---------0--------1------------------|
G|-2--2--2--1--1--1--2----------------|-2---------1--------2------------------|
D|-0--3--3--0--0--0--2----------------|-3---------0--------2------------------|
A|-0--3--3--2--2--2--0----------------|-3---------2--------0------------------|
E|-0--1--1--0--0--0--0----------------|-1---------0--------0------------------|

***********************************

| x   Dead note
| h   Hammer-on
| p   Pull-off


************************************

            
            
Suggest correction
Creating personal tab
Creating personal tab
You can edit any tab online and save it as your Personal.

You can edit, replace or remove any tab part or add personal notes – all changes will be seen only by you.

Personal tabs can be accessed anytime from any device, even offline.
Learn more »
Give kudos to tab author, rate the tab!
1 2 3 4 5
comments
print report bad tab
1 comment total.
0 reply
ilredelmark 46 Jul 25, 2017 08:54 AM

Bello! solo che io la second riga della seconda chitarra la farei
e|-------------------------------------|-0--------0--------0---------------|
B|----------1h3--1---------------------|-1--------1--------1---------------|
G|--------------------2p0--------------|-2--------2--------0---------------|
D|------------------------2p0----------|-2--------3--------2---------------|
A|----------------------------3p0-3/7--|-0--------3--------3---------------|
E|-------------------------------------|-0--------0--------0---------------|

guest
You may want to rate the tab now too:
select rating
Wanna post a correction for this tab? Suggest correction