Oops, an error
Loading. Please wait.

Cenizas En El Mar Bass Tab

version 1
version 1

Whole song

34 views 1 this week
no commentswrite comment
1 2 3 4 5
3 more votes to show rating
add to favorites
launch autoscroll
font size
0
reset
guitar tuner
×
Best way to learn
"Cenizas En El Mar"
Autoscroll
slow
fast
+/-
esc
set tempo
stop
ESTE ES EL PEQUEÑO BAJEO DEL INICIO
INTRO
E-----|
A--4--|
D-----|
G-----|

ESTE BAJEO SE TOCA DESPUES DE LA PRIMERA REPETICION DE LA GUITARRA
E-----------22222-----------|
A---444444--------2222222---|
D---------------------------|
G---------------------------|
CUANDO INICIAN LAS TROMPETAS SE TOCA ESTE BAJEO Y SE REPITE HASTA EL CORO
E-----------2---44-----|
A--4---4------4----6---|
D----6---6-------------|
G----------------------|
ESTE BAJEO ES EL DEL CORO
E--4---4---4--5---5---5---4---4---4--5----|---5-6-7-8--|
A----6---6------7---7-------6---6-------.-|------------|
D---------------------------------------.-|------------|
G-----------------------------------------|------------|
Y SIGUE EL BAJEO QUE SE REPITE
CUALQUIER DUDA BLAR_NSE@
DEDICADA A MI AMIGO FELIPE
Suggest correction
Give kudos to tab author, rate the tab!
1 2 3 4 5
comments
print report bad tab
guest
You may want to rate the tab now too:
select rating
Wanna post a correction for this tab? Suggest correction