Oops, an error
Loading. Please wait.

Cenizas En El Mar Bass Tab

version 2
version 2

Whole song

7 views 1 this week
no commentswrite comment
1 2 3 4 5
3 more votes to show rating
add to favorites
launch autoscroll
font size
0
reset
guitar tuner
×
Best way to learn
"Cenizas En El Mar"
Autoscroll
slow
fast
+/-
esc
set tempo
stop
                  intro x2                1 riff
g----+---------+-----------------+---------------------------+
d----+---------+-----------------+*----5---5-------------5--*+
a----+---------+3333-3333----1111+*-3----3------3--11-1---1-*+
e----+8\-------+----------1111---+----------1----------------+


                 2riff
g----------------------+-----------------------+
d-----5-----6-----5----+----5-----6----5-------+
a---5-----6-----5------+--5-----6-----5------1-+
e-3-----4-----3------4-+-3----4-----3----4-3---+

1riff
2riff
1riff
2riff
1riff
la salida es esto
g--------------------------+
d--------------------------+
a----3-----------3-------3-+
e----------1-----------65--+ 


escuchen la rola y se van a dar cuenta de los tiempos
Suggest correction
Give kudos to tab author, rate the tab!
1 2 3 4 5
comments
print report bad tab
guest
You may want to rate the tab now too:
select rating
Wanna post a correction for this tab? Suggest correction