Oops, an error
Loading. Please wait.

Este Ska Bass Tab

45 views 3 this week
no commentswrite comment
1 2 3 4 5
3 more votes to show rating
add to favorites
launch autoscroll
font size
0
reset
guitar tuner
×
Best way to learn
"Este Ska"
Autoscroll
slow
fast
+/-
esc
set tempo
stop
Intro

E|--------7-|-------7-|--4-2-4---|--4-2-4---|
A|--7-6-4---|-7-6-4---|--------2-|--------2-|
D|----------|---------|----------|----------| x4
G|----------|---------|----------|----------|

min. 0.22

E|--5--5-4--4-5--5-4--4--7-7-7-7-7-7-7-7-7-
A|----------------.------------------------
D|-----------------------------------------
G|-----------------------------------------

min 0.26

E|--------7-|-------7-|--4-2-4---|--4-2-4---|
A|--7-6-4---|-7-6-4---|--------2-|--------2-|
D|----------|---------|----------|----------| x2
G|----------|---------|----------|----------|

min 0.36

E|--5--5-4--4-5--5-4--4--7-7-7-7-7-7-7-7-7-
A|----------------.------------------------
D|-----------------------------------------
G|-----------------------------------------

min 0.40

E|--5-5-4-4--5-5-4-4--5-5-4-4--5-5-4-4--5-5-4-4--7-7-7-7-7-7-7
A|----------------.-------------------------------------------
D|------------------------------------------------------------
G|------------------------------------------------------------

min 0.50

E|--------7-|-------7-|--4-2-4---|--4-2-4---|
A|--7-6-4---|-7-6-4---|--------2-|--------2-|
D|----------|---------|----------|----------| x4
G|----------|---------|----------|----------|

min 1.08


E|----------|---------|--4-2-4---|--4-2-4---|
A|--7-6-4---|-7-6-4---|----------|----------|
D|----------|---------|----------|----------| x2
G|----------|---------|----------|----------|

min 1.18

E|--------7-|-------7-|--4-2-4---|--4-2-4---|
A|--7-6-4---|-7-6-4---|--------2-|--------2-|
D|----------|---------|----------|----------| x8
G|----------|---------|----------|----------|

min 1.54

E|--5--5-4--4-5--5-4--4--7-7-7-7-7-7-7-7-7-
A|----------------.------------------------
D|-----------------------------------------
G|-----------------------------------------

min 2.00

E|--5-5-4-4--5-5-4-4--5----5-5-4-4--5-5-4-4--5-
A|----------------.----------------------------
D|---------------------------------------------
G|---------------------------------------------

Final 2.08


E|------------------------7~~---9---------0~~~-
A|--7-7-7--6-6-6--5-5-5-----------6-7~~~-------
D|---------------------------------------------
G|---------------------------------------------


Un Saludo a toda
la banda que escucha
Ska y Reggae

Un saludo a Sublevados:

Guitarra: Jordy
2° Guitarra: Yo
Bajo: Adrian
Bataca: Chopper

Hasta la proxima Transcripcion
Suggest correction
Give kudos to tab author, rate the tab!
1 2 3 4 5
comments
print report bad tab
guest
You may want to rate the tab now too:
select rating
Wanna post a correction for this tab? Suggest correction