Oops, an error
Loading. Please wait.

Expendio El Olvido Tab

13 views 1 this week
no commentswrite comment
1 2 3 4 5
3 more votes to show rating
add to favorites
launch autoscroll
font size
0
reset
how to read this tab
guitar tuner
×
Best way to learn
"Expendio El Olvido"
Autoscroll
slow
fast
+/-
esc
set tempo
stop
transcribed by Rudy Guzman
guzman_84@


tune 2 steps down

este es un grupo de nogales sonora y a kada tokin ke voy de ellos se pone chingon
el asunto tokaron con los ramones, los misfits y 2 minutos , chingonada a la verga, 
yo estuve ahi y en su visita al pluma blanka, peña amador, etc.
bueno afine la guitarra 2 trastes atras porke andaba tabliando rolas de karma to burn
y zeke y pos una weba afinar a EADGBe todos modos kapeo la kosa

Eb|----------------------------------------------------------------------------------|
Bb|----------------------------------------------------------------------------------|
F#|------------------------------------7---------------7-7-7-7-7---------------------|
C#|---------4-7-7-7-7-7-7-7--9-9-9-9-9---9--7-7-7-7-7-------------9-7-7--5-5-4h5p4---|
G#|-5-5-5-5------------------------------------------------------------------------7-|
C#|----------------------------------------------------------------------------------|

Eb|-----------------------|
Bb|-----------------------|
F#|-7--7-7-7-7-7---7--7-7-|
C#|-7--7-7-7-7-7---7--7-7-|
G#|-5--5-5-5-5-5---5------|
C#|-----------------------|

   verse
      kieres volar  
Eb|-----------------------|
Bb|-----------------------|
F#|-7--7-7-7-7-7---7--7-7-|
C#|-7--7-7-7-7-7---7--7-7-|
G#|-5--5-5-5-5-5---5------|
C#|-----------------------|

    sobre la faz                encontrar la libertad
Eb|--------------------------------------------|
Bb|--------------------------------------------|
F#|-7--7-7-7-7-7---7--7-7--2--2-2-2-2--2--2-2--|
C#|-7--7-7-7-7-7---7--7-7--2--2-2-2-2--2--2-2--|
G#|-5--5-5-5-5-5---5-------0--0-0-0-0--0-------|
C#|--------------------------------------------|

   kieres buskar 
Eb|-----------------------|
Bb|-----------------------|
F#|-7--7-7-7-7-7---7--7-7-|
C#|-7--7-7-7-7-7---7--7-7-|
G#|-5--5-5-5-5-5---5------|
C#|-----------------------|

    [ch]A[/ch] felicidad
Eb|-----------------------|
Bb|-----------------------|
F#|-7--7-7-7-7-7---7--7-7-|
C#|-7--7-7-7-7-7---7--7-7-|
G#|-5--5-5-5-5-5---5------|
C#|-----------------------|

                  pues yo te voy a ayudar
Eb|--------------------------------------------|
Bb|--------------------------------------------|
F#|-7--7-7-7-7-7---7--7-7--2--2-2-2-2--2--2-2--|
C#|-7--7-7-7-7-7---7--7-7--2--2-2-2-2--2--2-2--|
G#|-5--5-5-5-5-5---5-------0--0-0-0-0--0-------|
C#|--------------------------------------------|

Eb|-----------------------|
Bb|-----------------------|
F#|-7--7-7-7-7-7---7--7-7-|
C#|-7--7-7-7-7-7---7--7-7-|
G#|-5--5-5-5-5-5---5------|
C#|-----------------------|

coro 
ven conmigo asi el olvido tomando mil cervezas y ignorando situaciones...
Eb|--------------------------------------------------------------------|
Bb|--------------------------------------------------------------------|
F#|------------------7-7-7-7-7-7-7--2-2-2-2-2-2-2-2--7-7-7-7-7-7-7-7-7-|
C#|-5-5-5-5-5-5-5-5--7-7-7-7-7-7-7--2-2-2-2-2-2-2-2--7-7-7-7-7-7-7-7-7-|
G#|-5-5-5-5-5-5-5-5--5-5-5-5-5-5-5--0-0-0-0-0-0-0-0--5-5-5-5-5-5-5-5-5-|
C#|-3-3-3-3-3-3-3-3----------------------------------------------------|

  ven conmigo hacia el odio tomando mil tekila y eskupiendo maldiciones
Eb|--------------------------------------------------------------------|
Bb|--------------------------------------------------------------------|
F#|------------------7-7-7-7-7-7-7--2-2-2-2-2-2-2-2--7-7-7-7-7-7-7-7-7-|
C#|-5-5-5-5-5-5-5-5--7-7-7-7-7-7-7--2-2-2-2-2-2-2-2--7-7-7-7-7-7-7-7-7-|
G#|-5-5-5-5-5-5-5-5--5-5-5-5-5-5-5--0-0-0-0-0-0-0-0--5-5-5-5-5-5-5-5-5-|
C#|-3-3-3-3-3-3-3-3----------------------------------------------------|

Eb|----------------------------------------------------------------------------------|
Bb|----------------------------------------------------------------------------------|
F#|------------------------------------7---------------7-7-7-7-7---------------------|
C#|---------4-7-7-7-7-7-7-7--9-9-9-9-9---9--7-7-7-7-7-------------9-7-7--5-5-4h5p4---|
G#|-5-5-5-5------------------------------------------------------------------------7-|
C#|----------------------------------------------------------------------------------|

Eb|-----------------------|
Bb|-----------------------|
F#|-7--7-7-7-7-7---7--7-7-|
C#|-7--7-7-7-7-7---7--7-7-|
G#|-5--5-5-5-5-5---5------|
C#|-----------------------|

   verse
Eb|-----------------------|
Bb|-----------------------|
F#|-7--7-7-7-7-7---7--7-7-|
C#|-7--7-7-7-7-7---7--7-7-|
G#|-5--5-5-5-5-5---5------|
C#|-----------------------|

Eb|--------------------------------------------|
Bb|--------------------------------------------|
F#|-7--7-7-7-7-7---7--7-7--2--2-2-2-2--2--2-2--|
C#|-7--7-7-7-7-7---7--7-7--2--2-2-2-2--2--2-2--|
G#|-5--5-5-5-5-5---5-------0--0-0-0-0--0-------|
C#|--------------------------------------------|

Eb|-----------------------|
Bb|-----------------------|
F#|-7--7-7-7-7-7---7--7-7-|
C#|-7--7-7-7-7-7---7--7-7-|
G#|-5--5-5-5-5-5---5------|
C#|-----------------------|

Eb|-----------------------|
Bb|-----------------------|
F#|-7--7-7-7-7-7---7--7-7-|
C#|-7--7-7-7-7-7---7--7-7-|
G#|-5--5-5-5-5-5---5------|
C#|-----------------------|

Eb|--------------------------------------------|
Bb|--------------------------------------------|
F#|-7--7-7-7-7-7---7--7-7--2--2-2-2-2--2--2-2--|
C#|-7--7-7-7-7-7---7--7-7--2--2-2-2-2--2--2-2--|
G#|-5--5-5-5-5-5---5-------0--0-0-0-0--0-------|
C#|--------------------------------------------|

Eb|-----------------------|
Bb|-----------------------|
F#|-7--7-7-7-7-7---7--7-7-|
C#|-7--7-7-7-7-7---7--7-7-|
G#|-5--5-5-5-5-5---5------|
C#|-----------------------|

coro 
ven conmigo...
Eb|--------------------------------------------------------------------|
Bb|--------------------------------------------------------------------|
F#|------------------7-7-7-7-7-7-7--2-2-2-2-2-2-2-2--7-7-7-7-7-7-7-7-7-|
C#|-5-5-5-5-5-5-5-5--7-7-7-7-7-7-7--2-2-2-2-2-2-2-2--7-7-7-7-7-7-7-7-7-|
G#|-5-5-5-5-5-5-5-5--5-5-5-5-5-5-5--0-0-0-0-0-0-0-0--5-5-5-5-5-5-5-5-5-|
C#|-3-3-3-3-3-3-3-3----------------------------------------------------|

ven conmigo...
Eb|--------------------------------------------------------------------|
Bb|--------------------------------------------------------------------|
F#|------------------7-7-7-7-7-7-7--2-2-2-2-2-2-2-2--7-7-7-7-7-7-7-7-7-|
C#|-5-5-5-5-5-5-5-5--7-7-7-7-7-7-7--2-2-2-2-2-2-2-2--7-7-7-7-7-7-7-7-7-|
G#|-5-5-5-5-5-5-5-5--5-5-5-5-5-5-5--0-0-0-0-0-0-0-0--5-5-5-5-5-5-5-5-5-|
C#|-3-3-3-3-3-3-3-3----------------------------------------------------|
 
Eb|----------------------------------------------------------------------------------|
Bb|----------------------------------------------------------------------------------|
F#|------------------------------------7---------------7-7-7-7-7---------------------|
C#|---------4-7-7-7-7-7-7-7--9-9-9-9-9---9--7-7-7-7-7-------------9-7-7--5-5-4h5p4---|
G#|-5-5-5-5------------------------------------------------------------------------7-|
C#|----------------------------------------------------------------------------------|

                                                        hechale bala richard
Eb|----------------------------------------------------------------------------------|
Bb|----------------------------------------------------------------------------------|
F#|------------------------------------7---------------7-7-7-7-7---------------------|
C#|---------4-7-7-7-7-7-7-7--9-9-9-9-9---9--7-7-7-7-7-------------9-7-7--5-5-4h5p4---|
G#|-5-5-5-5------------------------------------------------------------------------7-|
C#|----------------------------------------------------------------------------------|

solo
Eb|-14-14-14-14--15-15-15-15--17-17-17-17--15-15-15-15--14-14-14--15-15--14-14-14--12-12-12|
Bb|-15-15-15-15--17-17-17-17--19-19-19-19--17-17-17-17--15-15-15--17-17--15-15-15--14-14-14|
F#|----------------------------------------------------------------------------------------|
C#|----------------------------------------------------------------------------------------|
G#|----------------------------------------------------------------------------------------|
C#|----------------------------------------------------------------------------------------|

Eb|-10-10-10--9--9--9---7-7-7--5-5-5--3-3-3--2-2-2--3-3-3--5-5-5--9--|
Bb|-12-12-12--10-10-10--9-9-9--7-7-7--5-5-5--3-3-3--5-5-5--7-7-7--7--|
F#|------------------------------------------------------------------|
C#|------------------------------------------------------------------|
G#|------------------------------------------------------------------|
C#|------------------------------------------------------------------|

Eb|-14-14-14-14--15-15-15-15--17-17-17-17--15-15-15-15--14-14-14--15-15--14-14-14--12-12-12|
Bb|-15-15-15-15--17-17-17-17--19-19-19-19--17-17-17-17--15-15-15--17-17--15-15-15--14-14-14|
F#|----------------------------------------------------------------------------------------|
C#|----------------------------------------------------------------------------------------|
G#|----------------------------------------------------------------------------------------|
C#|----------------------------------------------------------------------------------------|

Eb|-10-10-10--9--9--9---7-7-7--5-5-5--3-3-3--2-2-2--3-3-3--5-5-5--9--|
Bb|-12-12-12--10-10-10--9-9-9--7-7-7--5-5-5--3-3-3--5-5-5--7-7-7--7--|
F#|------------------------------------------------------------------|
C#|------------------------------------------------------------------|
G#|------------------------------------------------------------------|
C#|------------------------------------------------------------------|

coro
Eb|--------------------------------------------------------------------|
Bb|--------------------------------------------------------------------|
F#|------------------7-7-7-7-7-7-7--2-2-2-2-2-2-2-2--7-7-7-7-7-7-7-7-7-|
C#|-5-5-5-5-5-5-5-5--7-7-7-7-7-7-7--2-2-2-2-2-2-2-2--7-7-7-7-7-7-7-7-7-|
G#|-5-5-5-5-5-5-5-5--5-5-5-5-5-5-5--0-0-0-0-0-0-0-0--5-5-5-5-5-5-5-5-5-|
C#|-3-3-3-3-3-3-3-3----------------------------------------------------|

Eb|--------------------------------------------------------------------|
Bb|--------------------------------------------------------------------|
F#|------------------7-7-7-7-7-7-7--2-2-2-2-2-2-2-2--7-7-7-7-7-7-7-7-7-|
C#|-5-5-5-5-5-5-5-5--7-7-7-7-7-7-7--2-2-2-2-2-2-2-2--7-7-7-7-7-7-7-7-7-|
G#|-5-5-5-5-5-5-5-5--5-5-5-5-5-5-5--0-0-0-0-0-0-0-0--5-5-5-5-5-5-5-5-5-|
C#|-3-3-3-3-3-3-3-3----------------------------------------------------|

ven conmigo...
Eb|-14-14-14-14--15-15-15-15--17-17-17-17--15-15-15-15--14-14-14--15-15--14-14-14--12-12-12|
Bb|-15-15-15-15--17-17-17-17--19-19-19-19--17-17-17-17--15-15-15--17-17--15-15-15--14-14-14|
F#|----------------------------------------------------------------------------------------|
C#|----------------------------------------------------------------------------------------|
G#|----------------------------------------------------------------------------------------|
C#|----------------------------------------------------------------------------------------|

Eb|-10-10-10--9--9--9---7-7-7--5-5-5--3-3-3--2-2-2--3-3-3--5-5-5--9--|
Bb|-12-12-12--10-10-10--9-9-9--7-7-7--5-5-5--3-3-3--5-5-5--7-7-7--7--|
F#|------------------------------------------------------------------|
C#|------------------------------------------------------------------|
G#|------------------------------------------------------------------|
C#|------------------------------------------------------------------|


Eb|---------------------------------------------|
Bb|---------------------------------------------|
F#|-5----2----5-----5--5------------------------|
C#|-5----2----5-----5--5------------------------|
G#|-3----0----3-----3--3------------------------|
C#|---------------------------------------------|


'no ke muy chingones esos de los pelos parados y con sus computadoras eh? no ke muy 
chingones'... *la merma* (concierto the Ramones)

haber si algun dia alguien encuentra esta rola

made in hillo son mex
herson

eyes of satan


zeke


TRANSCRIBED BY RUDY GUZMAN


guzman_84@


eb:----------------------------------------------|
Bb:----------------------------------------------|
Gb:----------------------------------------------|
Db:-6-6--9-9--6-6--9-9-9---6-6--9-9--6-6--9-9-9--|
Ab:-4-4--7-7--4-4--7-7-7---4-4--7-7--4-4--7-7-7--|
Eb:----------------------------------------------|

eb:---------------------------------------------------------------------------|
Bb:---------------------------------------------------------------------------|
Gb:---------------------------------------------------------------------------|
Db:-11-11-11-11-11-11--6-6-6-6-6-6-6-6--2-2-2-2-2-2--4-4-4-4-4-4--6-6-6-6-6-6-|
Ab:-9--9--9--9--9--9---4-4-4-4-4-4-4-4--0-0-0-0-0-0--2-2-2-2-2-2--4-4-4-4-4-4-|
Eb:---------------------------------------------------------------------------|

eb:---------------|
Bb:---------------|
Gb:---------------|
Db:---------------|
Ab:-4-2---2-------|
Eb:-----4---4-3-2-|

eb:----------------------------------------------|
Bb:----------------------------------------------|
Gb:----------------------------------------------|
Db:-6-6--9-9--6-6--9-9-9---6-6--9-9--6-6--9-9-9--|
Ab:-4-4--7-7--4-4--7-7-7---4-4--7-7--4-4--7-7-7--|
Eb:----------------------------------------------|

eb:---------------------------------------------------------------------------|
Bb:---------------------------------------------------------------------------|
Gb:---------------------------------------------------------------------------|
Db:-11-11-11-11-11-11--6-6-6-6-6-6-6-6--2-2-2-2-2-2--4-4-4-4-4-4--6-6-6-6-6-6-|
Ab:-9--9--9--9--9--9---4-4-4-4-4-4-4-4--0-0-0-0-0-0--2-2-2-2-2-2--4-4-4-4-4-4-|
Eb:---------------------------------------------------------------------------|


eb:-----------------------------------------------------------------------------|
Bb:-----------------------------------------------------------------------------|
Gb:-----------------------------------------------------------------------------|
Db:-6-6-6-6-6-6--9--11-6-6-6-6-6-6--9--11-6-6-6-6-6-6--9--11-6-6-6-6-6-6--9--11-|
Ab:-4-4-4-4-4-4--7--9--4-4-4-4-4-4--7--9--4-4-4-4-4-4--7--9--4-4-4-4-4-4--7--9--|
Eb:-----------------------------------------------------------------------------|


eb:--------------------------------------------------------------------------------------|
Bb:--------------------------------------------------------------------------------------|
Gb:--------------------------------------------------------------------------------------|
Db:--------------------------------------------------------------------------------------|
Ab:---2--4-2-4-2-4-2-4-2----2--4-2-4-2-4-2-4-2---2--4-2-4-2-4-2-4-2---2--4-2-4-2-4-2-4-2-|
Eb:-4---------------------4--------------------4--------------------4--------------------|

eb:--------------------------------------------------------------------------------|
Bb:--------------------------------------------------------------------------------|
Gb:--------------------------------------------------------------------------------|
Db:-6---------------------6-6------------------6--------------------6----12--11--9-|
Ab:-4---------------------4-4------------------4--------------------4----10--9---7-|
Eb:--------------------------------------------------------------------------------|

   solo
eb:-14b-14-15-14-12-14-12----12------------------------------------------------------------|
Bb:-----------------------15----15-14-12-14-12---------------------------------------------|
Gb:--------------------------------------------15-14-12-14-12----------------------12-14-15|
Db:-----------------------------------------------------------15-14-12-14-12-14-15---------|
Ab:----------------------------------------------------------------------------------------|
Eb:----------------------------------------------------------------------------------------|

                              2 times                    2 times
eb:----------12------|--9b---7b--5b---------------|--9b--11b-12b-14b-14b-14b-|
Bb:-------12----15b--|-12b--10b--8b--8b-8-6---6---|-12b--14b-15b-17b-17b-17b-|
Gb:-12-14------------|----------------------7---7-|--------------------------|
Db:------------------|----------------------------|--------------------------|
Ab:------------------|----------------------------|--------------------------|
Eb:------------------|----------------------------|--------------------------|


eb:--------------------------------------------------------------------------------------|
Bb:--------------------------------------------------------------------------------------|
Gb:--------------------------------------------------------------------------------------|
Db:--------------------------------------------------------------------------------------|
Ab:---2--4-2-4-2-4-2-4-2----2--4-2-4-2-4-2-4-2---2--4-2-4-2-4-2-4-2---2--4-2-4-2-4-2-4-2-|
Eb:-4---------------------4--------------------4--------------------4--------------------|

eb:--------------------------------------------------------------------------------|
Bb:--------------------------------------------------------------------------------|
Gb:--------------------------------------------------------------------------------|
Db:-6---------------------6-6------------------6--------------------6----12--11--9-|
Ab:-4---------------------4-4------------------4--------------------4----10--9---7-|
Eb:--------------------------------------------------------------------------------|

eb:----------------------------------------------|
Bb:----------------------------------------------|
Gb:----------------------------------------------|
Db:-6-6--9-9--6-6--9-9-9---6-6--9-9--6-6--9-9-9--|
Ab:-4-4--7-7--4-4--7-7-7---4-4--7-7--4-4--7-7-7--|
Eb:----------------------------------------------|

eb:---------------------------------------------------------------------------|
Bb:---------------------------------------------------------------------------|
Gb:---------------------------------------------------------------------------|
Db:-11-11-11-11-11-11--6-6-6-6-6-6-6-6--2-2-2-2-2-2--4-4-4-4-4-4--6-6-6-6-6-6-|
Ab:-9--9--9--9--9--9---4-4-4-4-4-4-4-4--0-0-0-0-0-0--2-2-2-2-2-2--4-4-4-4-4-4-|
Eb:---------------------------------------------------------------------------|


eb:-----------------------------------------------------------------------------|
Bb:-----------------------------------------------------------------------------|
Gb:-----------------------------------------------------------------------------|
Db:-6-6-6-6-6-6--9--11-6-6-6-6-6-6--9--11-6-6-6-6-6-6--9--11-6-6-6-6-6-6--9--11-|
Ab:-4-4-4-4-4-4--7--9--4-4-4-4-4-4--7--9--4-4-4-4-4-4--7--9--4-4-4-4-4-4--7--9--|
Eb:-----------------------------------------------------------------------------|

eb:------------------------|
Bb:------------------------|
Gb:------------------------|
Db:-6-5-4------------------|
Ab:-4-3-2---4----5-6-7--2--|
Eb:-------0-2-0--3-4-5--0--|

hillo son mex

herson

Suggest correction
Give kudos to tab author, rate the tab!
1 2 3 4 5
comments
print report bad tab
guest
You may want to rate the tab now too:
select rating
Wanna post a correction for this tab? Suggest correction