Oops, an error
Loading. Please wait.

Amargo Dolor Tab

163 views 1 this week
no commentswrite comment
1 2 3 4 5
3 more votes to show rating
add to favorites
launch autoscroll
font size
0
reset
how to read this tab
guitar tuner
×
Best way to learn
"Amargo Dolor"
Autoscroll
slow
fast
+/-
esc
set tempo
stop
                       (...SLAM...)


e|---1-1-1-3-3/5-5--5/10-10-10--8-6-6--5-|
B|-1-------------------------------------|
G|---2-2-2-3-3/5-5--5/10-10-10--9-7-7--5-|
D|-3-------------------------------------|


e|----1-1-1--3/5-5----5-6-5-6-5--5--3-|
B|--1---------------------------------|
G|----2-2-2--3/5-5---5-7-5-7-5--5--3--|
D|--3---------------------------------|


e|---1-1-1-3-3/5-5--5/10-10-10--8-6-6--5-|
B|-1-------------------------------------|
G|---2-2-2-3-3/5-5--5/10-10-10--9-7-7--5-|
D|-3-------------------------------------|


pekeño adorno que lleva.....

e|---------------------------------------------|
B|---------------------------------------------|
G|--3-2-3-2-2-2-----2-2-2--2/3-2---------------|
D|--------------3-3------3-------5-3------2-3--|
A|------------------------------------3-5------|
Suggest correction
Give kudos to tab author, rate the tab!
1 2 3 4 5
comments
print report bad tab
guest
You may want to rate the tab now too:
select rating
Wanna post a correction for this tab? Suggest correction