Oops, an error
Loading. Please wait.

El Parrandero Tab

101 views 1 this week
no commentswrite comment
1 2 3 4 5
3 more votes to show rating
add to favorites
launch autoscroll
font size
0
reset
how to read this tab
guitar tuner
×
Best way to learn
"El Parrandero"
Autoscroll
slow
fast
+/-
esc
set tempo
stop
Hola amigos aqui esta el Requinto, de el parrandero.
este es la introduccion y el intermedio de la cancion.


Armonizada en FA mayor.


E------8-10-8-10-10-8-6-5-5-6-5-6-5-1-3----
B------------------------------------------
G------9-10-9-10-10-9-7-5-5-7-5-7-5-2-3----
D------------------------------------------
A------------------------------------------
E------------------------------------------

                       [ch]F[/ch]
Parrandero, por las noches,
              [ch]C7[/ch]
de dia trabajador, yo tomo con
             [ch]A#           [ch]C7[/ch]  FA[/ch]
mi dinero, causa de tu infiel amor.


[ch]F[/ch]
No importa que en las cantinas,
                [ch]C7[/ch]
borracho visite yo, si nadie me
              [ch]A#           [ch]C7[/ch]   FA[/ch]
trae el gusto del amor que quiero yo.


[ch]F7    LA#[/ch]                         [ch]C7[/ch]
Solo tomando, calmo mis penas de amor,
                                    [ch]A#[/ch]
solo yo ando en la parranda, se me alegra
   [ch]C7  FA[/ch]
el corazon.


E------8-10-8-10-10-8-6-5-5-6-5-6-5-1-3----
B------------------------------------------
G------9-10-9-10-10-9-7-5-5-7-5-7-5-2-3----
D------------------------------------------
A------------------------------------------
E------------------------------------------


[ch]F[/ch]
Parrandero, por las noches,
              [ch]C7[/ch]
de dia trabajador, yo tomo con
             [ch]A#           [ch]C7[/ch]  FA[/ch]
mi dinero, causa de tu infiel amor.


[ch]F[/ch]
No importa que en las cantinas,
                [ch]C7[/ch]
borracho visite yo, si nadie me
              [ch]A#           [ch]C7[/ch]   FA[/ch]
trae el gusto del amor que quiero yo.


[ch]F7    LA#[/ch]                         [ch]C7[/ch]
Solo tomando, calmo mis penas de amor,
                                    [ch]A#[/ch]
solo yo ando en la parranda, se me alegra
   [ch]C7  FA[/ch]
el corazon.

BUENO AMIGOS SI HAY ALGUNA DUDA SI ALGUIEN TIENE MEJOR EL REQUINTO,
COMENTEN Y MANDEN LA CORRECCION.
ATTE. TRUCHO13
                GRACIAS.
Suggest correction
Give kudos to tab author, rate the tab!
1 2 3 4 5
comments
print report bad tab
guest
You may want to rate the tab now too:
select rating
Wanna post a correction for this tab? Suggest correction