Oops, an error
Loading. Please wait.

Sea Por Dios Tab

46 views 1 this week
no commentswrite comment
1 2 3 4 5
3 more votes to show rating
add to favorites
launch autoscroll
font size
0
reset
how to read this tab
guitar tuner
Autoscroll
slow
fast
+/-
esc
set tempo
stop
Help us to improve Ultimate-Guitar.com Take our survey!
×
INTRO
1|-12-12-14-14/16--14-16-14-12-10-10/12-10---7-7--9--9/10-10--10-12-12/14-14-12-10--9--
2|-14-14-15-15/17--15-17-15-14-12-12/14-12---9-9-10-10/12-12--12-14-14/15-15-14-12-10--
3|-------------------------------------------------------------------------------------
4|-------------------------------------------------------------------------------------

1|-14-14-12-12-10--9---7h9-7-------------------------
2|-15-15-14-14-12-10---------10-9-7----10------------
3|-----------------------------------7---------------
4|---------------------------------------------------


          A
Sea por Dios
      E7          A
que esa mujer se valla
si el destino asi lo quiere
                     E7
me tendre que conformar


Sea por Dios
que esa mujer me deje
porque al cabo si le ruego
                         A
se ha de creer que vale mas


       A
Yo le di
    E7        A
mi corazon mi alma
                     A7
pero vino un desgraciado
                    D
nuestro amor a separar


          E7
Y la infeliz
                 A
que tanto yo adoraba
         E7
no supo nunca
                    A
agradecer todo mi afan

INTERMEDIO
1|-12-12-14-14/16--14-16-14-12-10-10/12-10---7-7--9--9/10-10--10-12-12/14-14-12-10--9--
2|-14-14-15-15/17--15-17-15-14-12-12/14-12---9-9-10-10/12-12--12-14-14/15-15-14-12-10--
3|-------------------------------------------------------------------------------------
4|-------------------------------------------------------------------------------------

1|-14-14-12-12-10--9---7h9-7-------------------------
2|-15-15-14-14-12-10---------10-9-7----10------------
3|-----------------------------------7---------------
4|---------------------------------------------------


Yo no soy
altivo y orgulloso
y jamas en el desquite
pensara mi corazon

Pero hay Dios
muy justo y poderoso
que con cuerda y sin azote
vengara tu vil traicion

Sea por Dios
que esa mujer no vuelva
porque al cabo si ella vuelve
todavia la he de querer

Y quiera Dios
que el otro la entretenga
y asi me quito
ya de tanto padecer

FINAL
1|-12-12-14-14/16--14-16-14-12-10-10/12-10---7-7--9--9/10-10--10-12-12/14-14-12-10--9--
2|-14-14-15-15/17--15-17-15-14-12-12/14-12---9-9-10-10/12-12--12-14-14/15-15-14-12-10--
3|-------------------------------------------------------------------------------------
4|-------------------------------------------------------------------------------------

1|-7h9-7-----------------------
2|--------10-9-7----10---------
3|---------------7-------------
4------------------------------
Suggest correction
Give kudos to tab author, rate the tab!
1 2 3 4 5
comments
print report bad tab
guest
You may want to rate the tab now too:
select rating
Wanna post a correction for this tab? Suggest correction