Oops, an error
Loading. Please wait.

De Nuevo De Vuelta Lo Mismo Tab

18 views 1 this week
no commentswrite comment
1 2 3 4 5
3 more votes to show rating
add to favorites
launch autoscroll
font size
0
reset
how to read this tab
guitar tuner
Autoscroll
slow
fast
+/-
esc
set tempo
stop
Help us to improve Ultimate-Guitar.com Take our survey!
×
Hola a todos acá les dejo mi primer tema que envío
voy a ver si mando mas temas de la mississippi
ya que no hay casi nada en por internet
de esta fabulosa banda de blues
Espero que les guste.

Intro:
e---------------------------------------------------------------------
b---------------------------------------------------------------------
g---------------------------------------------------------------------
d--------------------------------------------5--7---------------------
a---2-4---5-5------2-4-5---4-2---------------5--7---------------------
e-3--------------3--------------3--0-3-0-----3--5---------------------

Riff 1 (x4)         Riff 2 (x4)
e-------------/------------------------------------------------------
b-------------/------------------------------------------------------
g-------------/------------------------------------------------------
d--4-4---6-4--/------------------------------------------------------
a--2-2---2-2--/--4-4---6-4-------------------------------------------
e-------------/--2-2---2-2-------------------------------------------

Riff1
Yo daba todo por terminado
Riff2
Y de nuevo de vuelta empezó
Riff1
Yo creí haberte dicho
Riff2
dicho que no pero se me olvidó
B5                  G#5
esto es como un mal sueño
          Riff2
que ya pasó,  y en el medio estoy yo

Riff1
Yo daba todo como cerrado
Riff2
y la puerta de nuevo se abrió,
Riff1
son tus mismos cigarrillos
Riff2
el mismo olor
en esta habitación
B5                   G#5
la misma piedra patié
A5
el mismo charco pisé
                      F#5
de nuevo volví a tu amor

Estribillo

Intro(x2)
Yo no quiero más
denuevo devuelta lo mismo
no quiero empezar
denuevo devuelta lo mismo


Yo daba lo pasado pisado
de nuevo de mal en peor
yo creí haber pedido
pedido perdón
o quizás fuiste vos
esto es como un mal sueño
que no terminó
y en el medio estoy yo
Y ajusté la misca cuerda
hasta que se reventó
como el filo de un cuchillo
que se oxidó
y otra vez me cortó
la misma piedra pateé
el mismo charco pisé
de nuevo volví a tu amor

intro(x2)
yo no quiero más
denuevo devuelta lo mismo
de vuelta ahí estás
denuevode vueltalo mismo

Yo daba todo por terminado
de nuevo de vuelta empezó
yo creí haberte dicho
dicho que no
o quizás fuiste vos
como un perro sin el dueño
así estoy
no se si vengo o si voy
Y doblé la misma esquina
que juré no volver a doblar y encontré la misma gente
y el mismo lugar
que quería olvidar
la misma piedra pateé
el mismo charco pisé
y me volví a empapar

yo no quiero mas
denuevo devuelta lo mismo
yo no puedo más
denuevo devuelta lo mismo
riff1
riff2
denuevo devuelta lo mismo
Riff1
Riff2
denuevo devuelta lo mismo...
Riff1
Riff2
denuevo devuelta lo mismo...
[ch]B5[/ch]

Dedicado a todos los amores pasados que no quiero ni ver
saludos al "enano demente"
aguante las pastillas y la mississippi

"Un candombe en la cabeza que no es para bailar"
Suggest correction
Give kudos to tab author, rate the tab!
1 2 3 4 5
comments
print report bad tab
guest
You may want to rate the tab now too:
select rating
Wanna post a correction for this tab? Suggest correction