Oops, an error
Loading. Please wait.

Blues Del Equipaje Bass Tab

238 views 3 this week
no commentswrite comment
1 2 3 4 5
3 more votes to show rating
add to favorites
launch autoscroll
font size
0
reset
guitar tuner
×
Best way to learn
"Blues Del Equipaje"
Autoscroll
slow
fast
+/-
esc
set tempo
stop
Blues del equipaje
La mississippi blues band

INTRO:

G|-----------------------------------------------------------------------
D|-------7--------5------------------------------------------------------
A|----------5--7-----7---------------------------------------------------
E|----5------------------------------------------------------------------


G|-------7--------5------------------------------------------------------
D|----------5--7-----7---------------------------------------------------
A|----5------------------------------------------------------------------
E|-----------------------------------------------------------------------


G|-------9--------7------------------------------------------------------
D|----------7--9-----9---------------------------------------------------
A|----7------------------------------------------------------------------
E|-----------------------------------------------------------------------

Prendo un cigarro dormido, es muy temprano apenas hay luz.
Prendo un cigarro dormido, es muy temprano apenas hay luz.
Me espera un largo viaje
Y mi único equipaje es el blues

Café temprano en Retiro, vermouth con un amigo en Lanús.
Café temprano en Retiro, vermouth con un amigo en Lanús.
Por que es muy largo el viaje
Y mi único equipaje es el blues

Es algo raro el destino, lo que hoy es cara mañana es cruz
Es algo raro el destino, lo que hoy es cara mañana es cruz
Me espera un largo viaje
Y mi único equipaje es el blues

G|-----------------------------------------------------------------------
D|-----------------------------------------------------------------------
A|--5-5-5-5-5-5-5-5-5-5-5-5-5-5-5-5--------------------------------------
E|----------------------------------5-5-5-5-5-5-5-5-5-5-5-5-5-5-5-5------

G|-----------------------------------------------------------------------
D|-----------------------------------------------------------------------
A|--5-5-5-5-5-5-5-5--7-7-7-7-7-7-7-7-------------------------------------
E|------------------------------------5-5-5-5-5-5-5-5--5-5-5-5-----------

Andando me da lo mismo, me da lo mismo si es norte o sur,
Andando me da lo mismo, me da lo mismo si es norte o sur.
Me espera un largo viaje
Y mi único equipaje es el blues
Me espera un largo viaje
Y mi único equipaje es el blues
Me espera un largo viaje
Y mi único equipaje es el blues
Suggest correction
Give kudos to tab author, rate the tab!
1 2 3 4 5
comments
print report bad tab
guest
You may want to rate the tab now too:
select rating
Wanna post a correction for this tab? Suggest correction