Oops, an error
Loading. Please wait.

El Detalle Tab

118 views 1 this week
no commentswrite comment
1 2 3 4 5
3 more votes to show rating
add to favorites
launch autoscroll
font size
0
reset
how to read this tab
guitar tuner
Autoscroll
slow
fast
+/-
esc
set tempo
stop
Help us to improve Ultimate-Guitar.com Take our survey!
×
Este solo es el de la version en vivo, en el de version
de estudio no se si es asi...

e-----------------------------------------
b-------7-9-(10)b-9p7---7-9b(11)----------
G-6-6/8---------------8-----------8/7-6---
D-----------------------------------------
A-----------------------------------------
E-----------------------------------------


e--------------------------------------------------
b-------7---7~-9b(11)--7-9---7-9b(10)----7-9-9b(11)
G-6-6/8---8----------------8----------6-6----------
D--------------------------------------------------
A--------------------------------------------------
E--------------------------------------------------


e-------------------------------------------
b--------------7--7-9b(11)----9--7-9b(11)-7-
G-8-7-6--6-6/8---8----------8--8------------
D-------------------------------------------
A-------------------------------------------
E-------------------------------------------


e----9-8-7-------------------------------------
b--7-------10-7---7-9b(10)--7-9---7------------
G-8--------------8--------------8--------------
D----------------------------------------------
A----------------------------------------------
E----------------------------------------------


e----9-8-7-------------------------------------
b--7-------10-7---7-9b(10)--7-9---7------------
G-8--------------8--------------8--------------
D----------------------------------------------
A----------------------------------------------
E----------------------------------------------


e-9b(11)-9~-8-7----7~--8-7----7~--8-7-------------------------
b---------------10---------10---------10-7---7-9-(10)b-9p7---7
G------------------------------------------8---------------8--
D-------------------------------------------------------------
A-------------------------------------------------------------
E-------------------------------------------------------------

LEYENDA:

~ VIBRATO
b BENDING (estirar hasta llegar al sonido
 del traste indicado entre parentesis)
/ SLIDE
p PULL OFF


(10)b-9p7 aca no sabia como escribirlo,
 pero lo q hace es lo siguiente:

en el traste 9 estira la cuerda llegando al sonido del
traste 10 y recien ahi toca la nota, y despues vuelve
al sonido original,osea, el del traste 9.
Cuando llega al sonido del 9, hace un pull off hacia
el traste 7.

Bueno, eso es todo, espero q les sirva...

un saludo para el hongo, alan y huevo, son re grosos...
Suggest correction
Give kudos to tab author, rate the tab!
1 2 3 4 5
comments
print report bad tab
guest
You may want to rate the tab now too:
select rating
Wanna post a correction for this tab? Suggest correction