Oops, an error
Loading. Please wait.
78 views 1 this week
no commentswrite comment
1 2 3 4 5
3 more votes to show rating
add to favorites
launch autoscroll
font size
0
reset
how to read this tab
guitar tuner
×
Best way to learn
"Mala Transa"
Autoscroll
slow
fast
+/-
esc
set tempo
stop
Intro
                   E7/9                 E7/9 
E|-------------------0-------------------0----
B|-------------------8-------------------8----
G|-------------------7-------------------7----
D|-------0------0-2--6-------0------0----6---- x2
A|--0h2h5--0h2h5-----7--0h2h5--0h2h5-----7----
E|-------------------0----------------3--0----

                   E7/9 
E|-------------------0-----------------------
B|-------------------8-----------------------
G|-------------------7-----------------------
D|-------0------0-2--6-------0------0--------
A|--0h2h5--0h2h5-----7--0h2h5--0h2h5---------
E|-------------------0----------------3--3-4-

A5                               E7
Mala suerte un policía en el umbral,
A5                               E7
Mala suerte un policía en el umbral,
        B5
Fue una mala transa
  C5             B        E7
Doblar por la avenida y volar.-

Tu vieja cigarros te va a llevar,
Tu vieja cigarros te va a llevar,
Fue una mala transa
Doblar por la avenida y volar.-

Mala suerte el diablo te va a llevar,
Mala suerte el diablo te va a llevar,
Fue una mala transa
Doblar por la avenida y volar.-

Que mal la hiciste ya se veía el final,
Que mal la hiciste ya se veía el final,
Fue una mala transa
Doblar por la avenida y volar.-


LE HICE ALGUNOS CAMBIOS PARA QUE SUENE MÁS COMO
EL TEMA, PUES TIENE VARIOS ARREGLOS RÁPIDOS EN
EL INTRO Y EL A5 SUENA MEJOR EN LAS ESTROFAS.
Suggest correction
Give kudos to tab author, rate the tab!
1 2 3 4 5
comments
print report bad tab
guest
You may want to rate the tab now too:
select rating
Wanna post a correction for this tab? Suggest correction