Oops, an error
Loading. Please wait.

Matadero Tab

89 views 1 this week
no commentswrite comment
1 2 3 4 5
3 more votes to show rating
add to favorites
launch autoscroll
font size
0
reset
how to read this tab
guitar tuner
Autoscroll
slow
fast
+/-
esc
set tempo
stop
Help us to improve Ultimate-Guitar.com Take our survey!
×
intro
|-------------------------|------------------------------|
|-------------------------|------------------------------|
|--7/9-7--------7/9-7---7-|--7/9-7-----------------------|
|--------9-7----------9---|--------9-7--0/2-0/2-0/2-0/2--|
|------------10-----------|------------------------------|
|-------------------------|------------------------------|

|---------------------------------------------------------------------|
|---------------------------------------------------------------------|
|---------------------------------------------------------------------|
|--------4-----2-----------------------------9-9-9-9-9-9-9-9-9-9-9-9--|
|--0-1-2---2-0---------------2---------------9-9-9-9-9-9-9-9-9-9-9-9--|
|----------------3-0--0--3/4----0--0--3/4/5--7-7-7-7-7-7-7-7-7-7-7-7--|

base de estrofa
|-------------------------------------------------------------------|
|-------------------------------------------------------------------|
|-------------------------------------------------------------------|  x 2
|--2-2-2-2-2-2-2-2--------------------------------------------------|
|--0-0-0-0-0-0-0-0---------2-4/5---------2---------2-4/5---------2--|
|------------------0-0-3/4-------0-0-3/4---0-0-3/4-------0-0-3/4----|
                 /                  riff                                                \
|---------------------------------------|-------------------------------------------------|
|---------------------------------------|-------------------------------------------------|
|----------------7/9-7--------7/9-7---7-|--7/9-7------------------------------------------|
|----------corte-------9-7----------9---|--------9-7--0/2-0/2-0/2-0/2--------4-----2------|
|--9-9-9-9--7--------------10-----------|------------------------------0-1-2---2-0--------|
|--7-7-7-7--5---------------------------|--------------------------------------------0-3--|

A                                                 E
el flaco entra como siempre al matadero a las dies
A                                                 E
y todo el dia corta carne, hueso y media res
B                    A*(corte)
mientras descansa se pone a pensar
riff
este trabajo no es para mi
como fue que llegue aqui

A                                     E
una familia numerosa no te deja elejir
A                                          E
y el matadero es una escusa para sobrevivir
B                     A*(corte)
comer es algo que no puede esperar
riff
carga la carne sobre el camion
y siempre a la vista del patron

solo de armonica (estrofa pero el A es sin corte)
solo de viola ( Ax2 Ex2 Ax2 Ex2 B A intro )

A                                                       E
es la verdad que a dos patrones no se puede servir, no no no
A                                                        E
si no es con dios es con el diablo que etenes que vivir
B               A*(corte)
uno te quita el otro te da
riff
el diablo paga del uno al dies
que dios te ayude a fin de mes

A                                                    E
mañana el flaco toma un micro que lo lleva hacia el bar
A                                     E
y nunca mas matadero, nunca mas afanar
B                   A*(corte)
no es mas esclavo, libre al fin!!!
riff
pero esa noche sueña otra ves
que carga al hombro media res

|----------------------------------------------|-------------------------------------|
|----------------------------------------------|-------------------------------------|
|----------------------------------------------|--9-7-----------------------------9--|
|--------4-----2--------4-----2--------4-----2-|------9--7-9/7----7/9----7/9-7/9--9--|
|--0-1-2---2-0----0-1-2---2-0----0-1-2---2-0---|---------------10-----10----------7--|
|----------------------------------------------|-------------------------------------|
Suggest correction
Give kudos to tab author, rate the tab!
1 2 3 4 5
comments
print report bad tab
guest
You may want to rate the tab now too:
select rating
Wanna post a correction for this tab? Suggest correction