Oops, an error
Loading. Please wait.

Que Miseria Bass Tab

44 views 1 this week
no commentswrite comment
1 2 3 4 5
3 more votes to show rating
add to favorites
launch autoscroll
font size
0
reset
guitar tuner
×
Best way to learn
"Que Miseria"
Autoscroll
slow
fast
+/-
esc
set tempo
stop
Riff 1
G|---------|----------|
D|-----6-8-|------6-8-|
A|---8-----|----8-----|
E|-6-------|--6-------|

Riff 2
G|---------|-------------|
D|---------|-------------|
A|-6---4-6-|-6---6-4-4-6-|
E|---6-----|---6---------|

Riff 3
G|---------|-----------|
D|---------|-----------|
A|-8---6-8-|-6---4-4-6-|
E|---8-----|---6-------|

El orden de la cancion es el sig:
Riff 1 x2
Riff 2
Riff 1
Riff 3
Riff 1
y de vuelta


Nota: El bajo realiza los mismos
riff que la guitarra
Suggest correction
Give kudos to tab author, rate the tab!
1 2 3 4 5
comments
print report bad tab
guest
You may want to rate the tab now too:
select rating
Wanna post a correction for this tab? Suggest correction