Oops, an error
Loading. Please wait.

Que Miseria Chords

18 views 1 this week
no commentswrite comment
1 2 3 4 5
3 more votes to show rating
add to favorites
launch autoscroll
font size
0
reset
transpose
0
reset
simplify chords
display chords
guitar tuner
×
Best way to learn
"Que Miseria"
Autoscroll
slow
fast
+/-
esc
set tempo
stop
Intro: Riff 1 x 2 ; Riff 2 ; Riff 1 ; Riff 3; Riff 1; F7


TEMA: 

      Bb7
Oiga jefe, todavia no cobre
Eb7                    Bb7
Hoy es 15, todavia no cobre
       F7   Eb7                Bb7         F7
como puedo,      me mantengo a pan y té, si
        Bb7
Si no pagan, esta vez no puedo mas
       Eb7
si no pagan, no
             Bb7
esta vez no puedo mas,
        F7      Eb7         Bb7  F7
aunque sea, kisiera poder fumar

Solo (Bb7  Eb7  Bb7  F7  Eb7  Bb7  F7) X 4

Riff 1:

1-----------/---------
2-----------/---------
3-----------/-----8-8-
4------6-8--/----6----
5----8------/---8-----
6--6--------/-6-------

Riff 2:

1-----------/-------------
2-----------/-------------
3-----------/-------------
4-----------/-------------
5--7--5-7---/--7---5-7-7--
6---7-------/----7--------

Riff 3:

1------------/-----------
2------------/------------
3------------/------------
4------------/------------
5--8---6-8---/-8---6-8-8--
6----8-------/---8--------
Suggest correction
Give kudos to tab author, rate the tab!
1 2 3 4 5
comments
print report bad tab
guest
You may want to rate the tab now too:
select rating
Wanna post a correction for this tab? Suggest correction