Oops, an error
Loading. Please wait.

The Creeper Return Tab

452 views 1 this week
no commentswrite comment
1 2 3 4 5
3 more votes to show rating
add to favorites
launch autoscroll
font size
0
reset
how to read this tab
guitar tuner
×
Best way to learn
"The Creeper Return"
Autoscroll
slow
fast
+/-
esc
set tempo
stop
The Creeper Return (la mississippi blues band)

TAB DE GUITARRA by Pedro Pablo Garcia
CORREGIDO (gracias huguito!)

Blues de 12 compases en Bm

/ = golpes fuertes en cada compas (ritmica)
% = repite compas anterior (acordes y ritmica)
n/c = no toca (la guitarra)
* = los bajos en SI solo los hace en la primera vuelta (4 compases);
en todas las siguientes NO, proque ya esta el bajo...

intro...       Bm7/F#      %  %   %        Em7/B               %
    /      /   /   /  /                     /    /    / /            /
|-------||----------------|--|--|-~-------|-7--7-7--7---7-7-7-|-~---------|
|-------||-------7--------|--|--|-~-------|-8--8-8--8---8-8-8-|-~---------|
|-------||-------7--------|--|--|-~-------|-7--7-7--7---7-7-7-|-~---------|
|---7-8-||-9-----7----7-8-|--|--|-~---7-8-|-9--9-9--9---9-9-9-|-~----7-8--|
|-9-----||-------9--9-----|--|--|-~-9-----|-------------------|-~--9------|
|-------||---7-7----------|--|--|-~-------|-------------------|-~---------|
             * *

   Bm7/F#        %       F#m7/C#                 Em7/B             n/c n/c
                           /      /    //         /    /   /   /    /
|-----------|------------|-9-- 9--9--9--9--9--9-|-7--7-7--7--------|--|--||
|----7------|----7-------|-10--10-10-10-10-10-10|-8--8-8--8--------|--|--||
|----7------|----7-------|-9---9--9--9--9--9--9-|-7--7-7--7----7-8-|9-|--||
|-9--7--7-8-|-9--7---7-8-|-11--11-11-11-11-11-11|-9--9-9--9--9-----|--|--||
|----9-9----|----9-9-----|----------------------|------------------|--|--||
|-----------|------------|----------------------|------------------|--|--||


el tema seria asi (para tocar solo, los bajos son opcionales):

|  Bm7/F# |  Bm7/F# |  Bm7/F# |  Bm7/F# |

|  Em7/B  |  Em7/B  |  Bm7/F# |  Bm7/F# |

|  F#m7/C# |  Em7/B |   n/c   |   n/c   |


con escucharlo un par de vueltas debieran cazarle la onda
los golpes son como yo los escuche, puede ser que me haya comido
alguno porque la armonica esa aturde como loco y no deja escuchar!!
y la mano derecha le pone mucha onda, FUNDAMENTAL.

DEDICADO a HUguito PErez, amigo, profe, mentor y alma gemela.
Y hernan, que "trabaja" de peluquero pero en los ratos libres
tocala armonica. es para vos! ... aca lo tenes! ahora tocalo! :)
Suggest correction
Give kudos to tab author, rate the tab!
1 2 3 4 5
comments
print report bad tab
guest
You may want to rate the tab now too:
select rating
Wanna post a correction for this tab? Suggest correction