Oops, an error
Loading. Please wait.

Un Trago Para Ver Mejor Tab

368 views 1 this week
no commentswrite comment
1 2 3 4 5
3 more votes to show rating
add to favorites
×
Save as Personal and add changes to this tab that will be seen only by you. Learn more ›
×
You can save this tab as Personal to edit and correct it or add notes. All changes will be seen only by you. Learn more »
save as personal
new!
launch autoscroll
font size
0
reset
how to read this tab
guitar tuner
Autoscroll
slow
fast
+/-
esc
set tempo
stop
INTRO
                            x2
e----|----------------------||---------------------------------------|
B----|----------------------||---------------------------------------|
G--2-|------------------2-2-||----------2---------2-2---------2------|
D--2-|-----2-4-2-2-4-2--2-2-||------2-4---4-2-----2-2-----2-4---4-2--|
A--0-|-3h4------------------||--3h4-----------3h4-----3h4------------|
E----|----------------------||---------------------------------------|

              x2
e-------------||-----------------------------------------------------------
B--3-3-3-3-3--||---------------------5--5-5---3--3-3-----------------------
G--2-2-4-2-4--||--2-2---------4------4--4-4---2--2-2---2-2-----------------
D-------------||--2-2-----2-4---4-2--------------------2-2-----2-4-2-0-1-2-
A-------------||------3h4----------------------------------3h4-------------
E-------------||-----------------------------------------------------------

e------3-5-5-5-5-5-5-5-7/-       
B--3h5--------------------      
G-------------------------
D-------------------------
A-------------------------
E-------------------------

A-C-C#-D   A   E   A   E


        A
Yo puse todo de mi
      D                A
y el día me trató muy mal
         D
pero lo peor ya fué
                   A
ahora quiero estar en mi hogar
  E
quiero sentarme a ver el sol caer
   A                  E
a filosofar y a beber.


    A
Un trago para ver mejor
    A                   A-B-C-C#-D
Un trago para ver mejor
    D
Un trago para ver mejor
    A
Un trago para ver mejor
        E                 D           A   D-D#-E
si no fuera por un trago, podría ser peor.


Tengo de plomo los pies
mi boca es un desierto de sal
hola mi amor, ya llegé,
que bueno me esperaste a cenar!
quiero sentarme a ver el sol caer
a filosofar y a beber.


Un trago para ver mejor...


SOLO IGUAL QUE ESTROFA


Hay que seguir y seguir
quemado vivo por la ciudad
pero yo se donde ir
para sentirme bien de verdad
quiero sentarme a ver el sol caer
a filosofar y a beber.


Un trago para ver mejor, 
dos tragos para ver mejor, 
tres tragos para ver mejor,
cuatro tragos para ver mejor,
si no fuera por un trago, podría ser peor.
 
NOTA: Tocar como base de rock
Suggest correction
Give kudos to tab author, rate the tab!
1 2 3 4 5
comments
print report bad tab
guest
Wanna post a correction for this tab? Suggest correction