Oops, an error
Loading. Please wait.

Blues Que Me Condena Tab

11 views 1 this week
no commentswrite comment
1 2 3 4 5
3 more votes to show rating
add to favorites
×
Save as Personal and add changes to this tab that will be seen only by you. Learn more ›
×
You can save this tab as Personal to edit and correct it or add notes. All changes will be seen only by you. Learn more »
save as personal
new!
launch autoscroll
font size
0
reset
how to read this tab
guitar tuner
Autoscroll
slow
fast
+/-
esc
set tempo
stop
EADGBe

Intro
   C         G               F             G
e|-----0---------------------------------------------------------|
B|-1-----3-1-0---1p0-3-1-0-----------3-----0-----------3s5-3s5---|
G|-------------------------0-2---24---4-2----------0h2-----------|
D|----------------------------------------------2----------------|
A|---------------------------------------------------------------|
E|---------------------------------------------------------------|

Verso                                                   Entrada al puente
e|0---------3--------------------1------------------3------------------- |
B|1--3-1-0--0--0-1-0-1s3s1-0-----1-------3----------0-----------1-3-5s3- |
G|0---------0-----------------0--2---2s4---4-2--0---0-------0h2--------- |
D|2---------0--------------------3------------------0---0h2------------- |
A|3---------2--------------------3------------------2------------------- |
E|0---------3--------------------1------------------3------------------- |


Puente
e|-1---3----------------1----------------3-------------------
B|-1---0---1-0-3-1-0----1-------3--------0-----------1-35/3--
G|-2---0-------------0--2---24---4-2-0---0-------0h2---------
D|-3---0----------------3----------------0---0h2-------------
A|-3---2----------------3----------------2-------------------
E|-1---3----------------1----------------3-------------------


Coro igual al verso

Punteo

e|---------------------------------8-10s12s10-8- >
B|-8...-10--10--8---10-8------8-10-------------- >
G|-----------------------9-7-------------------- >
D|---------------------------------------------- >
A|---------------------------------------------- >
E|---------------------------------------------- >

e|-------8-10s12s10------8--------------10s12s10-8----10s12..-- >
B|-10.--------------10.----10-8.---8-10------------10---------- >
G|-------------------------------9----------------------------- >
D|------------------------------------------------------------- >
A|------------------------------------------------------------- >
E|------------------------------------------------------------- >


e|-12b-15.--12bb-s10--10s8--10s12-15--10s12-15--10s12-15--10s8-8- >
B|--------------------------------------------------------------- >
G|--------------------------------------------------------------- >
D|--------------------------------------------------------------- >
A|--------------------------------------------------------------- >
E|--------------------------------------------------------------- >


e|---------8-------8---8-10-8-7.--8-10-8-7---------8-|
B|---8s10----8s10--------------------------10-8-10---|
G|---------------------------------------------------|
D|---------------------------------------------------|
A|---------------------------------------------------|
E|---------------------------------------------------|


Aguante la mocosa, viejas e intoxicados che.
Hermanos de Sangre son lo mejor q hay!!!! Ro TE amo muchoooooo. Gon
Suggest correction
Give kudos to tab author, rate the tab!
1 2 3 4 5
comments
print report bad tab
guest
Wanna post a correction for this tab? Suggest correction