Oops, an error
Loading. Please wait.

Canalla Y Embustero Tab

14 views 1 this week
no commentswrite comment
1 2 3 4 5
3 more votes to show rating
add to favorites
×
Save as Personal and add changes to this tab that will be seen only by you. Learn more ›
×
You can save this tab as Personal to edit and correct it or add notes. All changes will be seen only by you. Learn more »
save as personal
new!
launch autoscroll
font size
0
reset
how to read this tab
guitar tuner
Autoscroll
slow
fast
+/-
esc
set tempo
stop
SOLO
(1:22)


   F#5                            F#5
e|-----9-----9-----9-----9-----9------9-----9-----9-----9-----9
B|-12b---12b---12b---12b---12b----12b---12b---12b---12b---12b--
G|-------------------------------------------------------------
D|-------------------------------------------------------------
A|-------------------------------------------------------------
E|-------------------------------------------------------------

   B5                        F#5
e|-------------------------------9-----9-----9-----9-----9-----
B|-12ba-p10----12ba-p10------12b---12b---12b---12b---12b-------
G|----------9v----------9v-------------------------------------
D|-------------------------------------------------------------
A|-------------------------------------------------------------
E|-------------------------------------------------------------

       C#5                             B5
e|-----12p9-12p9-12p9-12p9-12p9-12p9-------14-----14-----14----
B|-12b---------------------------------17b----17b----17b-------
G|-------------------------------------------------------------
D|-------------------------------------------------------------
A|-------------------------------------------------------------
E|-------------------------------------------------------------

                                  F#5
                   canalla y embustero
e|-----14------------------------------------------------------
B|-17b----17b-------5---4---2----------------------------------
G|------------------6---4---2----------------------------------
D|---------------------------------4---------------------------
A|-------------------------------------------------------------
E|-------------------------------------------------------------
Suggest correction
Give kudos to tab author, rate the tab!
1 2 3 4 5
comments
print report bad tab
guest
Wanna post a correction for this tab? Suggest correction