Oops, an error
Loading. Please wait.

Como Ayer Tab

49 views 1 this week
no commentswrite comment
1 2 3 4 5
3 more votes to show rating
add to favorites
launch autoscroll
font size
0
reset
how to read this tab
guitar tuner
Autoscroll
slow
fast
+/-
esc
set tempo
stop
Help us to improve Ultimate-Guitar.com Take our survey!
×

        (B7)

|---------2--------(2)--|
|-------0--0------(0)---|
|-----2-----2----(2)----|
|---1-----------(1)-----|
|-2------------(2)------|
|-------------(0)-------|


(Em)
|-0--0--0-0--0..-|
|-0--0--0-0--0..-|
|-0--0--0-0--0..-|
|-2--2--2-1--2..-|
|-2--2--2-2--2..-|
|-0--0--0-0--0..-|


Em                         C
Atravesando la brisa del otoño
D                         Em
me pregunto si el frio pasara.

Em                         C
antes una mirada me condenaba
D                         Em
y en otros ojos yo perdi la razon

-------------------------------------------
(Em)

|-----------(0)----------(0)----------|
|-----------(0)----------(0)----------|
|-----9-----(0)----------(0)------9---|
|-7-9---9---(2)----------(2)--7-9---9-|
|-----------(2)----------(2)----------|
|-----------(0)---(3)(2)-(0)----------|

|(0)---------(0)---------(0)-------|
|(0)---------(0)---------(0)-------|
|(0)---------(0)---------(0)-------|
|(2)---------(2)---------(2)-------|
|(2)---------(2)---------(2)-------|
|(0)--(3)(2)-(0)--(3)(2)-(0)-------|


|------------(0)------------(0)-|
|------------(0)------------(0)-|
|------------(0)------------(0)-|
|------------(2)------------(2)-|
|------------(2)------------(2)-|
|---(3)(2)-0-(0)---(3)(2)-0-(0)-|

|-----------(0)------------(0)--------------(0)|
|-----------(0)------------(0)--------------(0)|
|-----------(0)------------(0)-4b-2---------(0)|
|-----------(2)------------(2)-----4-2------(2)|
|-----------(2)------------(2)--------4-2---(2)|
|--(3)(2)-0-(0)---(3)(2)-0-(0)--------------(0)|


----------------------------------------------
Verso:

     Em               C               D
|---0-----0----|----0-----0---|-----2-----2---|
|----0-----0---|-----1-----1--|------3-----3--|
|-----0-----0--|------0-----0-|----2--2--2--2-|
|--2----2------|--2------2----|--0------0-----|
|-2----2-------|-3------3-----|---------------|
|--------------|--------------|---------------|

fill 1
|--------------|
|-0h3-0--1-----|
|--------------|
|--------------|
|--------------|
|--------------|

Em                    C       (fill 1)
Atravesando la brisa del otoño
D                     Em
me pregunto si el frio pasara
Em                    C
antes una mirada me condenaba
D                     Em
y en otros ojos yo perdi la razon

--------------------------------------------------
Pre estribillo:

C
y hoy me encuentro de madugrada
G
escribiendo esta cancion
C                         D           (Dsus)
quisas algun dia nos volvamos a encontrar
Em         C
y todo sera
Em         C
y todo sera
D        (Dsus-D-Dsus)
como ayer

------------------------------------------------
(Em)

|-----------(0)----------(0)----------|
|-----------(0)----------(0)----------|
|-----9-----(0)----------(0)------9---|
|-7-9---9---(2)----------(2)--7-9---9-|
|-----------(2)----------(2)----------|
|-----------(0)---(3)(2)-(0)----------|

|(0)---------(0)---------(0)-------|
|(0)---------(0)---------(0)-------|
|(0)---------(0)---------(0)-------|
|(2)---------(2)---------(2)-------|
|(2)---------(2)---------(2)-------|
|(0)--(3)(2)-(0)--(3)(2)-(0)-------|

|------------(0)------------(0)-|
|------------(0)------------(0)-|
|------------(0)------------(0)-|
|------------(2)------------(2)-|
|------------(2)------------(2)-|
|---(3)(2)-0-(0)---(3)(2)-0-(0)-|

|-----------(0)------------(0)----------(0)|
|-----------(0)------------(0)----------(0)|
|-----------(0)------------(0)----------(0)|
|-----------(2)------------(2)----------(2)|
|-----------(2)------------(2)----------(2)|
|--(3)(2)-0-(0)---(3)(2)-0-(0)----------(0)|


------------------------------------------------

Verso 2:

     Em               C               D
|---0-----0----|----0-----------|-----23-----32--|
|----0-----0---|-----1--0h3-0-1-|-3--------------|
|-----0-----0--|------0---------|----2--2--2---2-|
|--2----2------|--2-------------|--------0-------|
|-2----2-------|-3--------------|----------------|
|--------------|----------------|----------------|

      Em
|---0---222--|
|----0-------|
|-----0------|
|--2---------|
|-2----------|
|------------|

Em                                  C
siempre te dije no me arrepiento de nada
D                      Em
lo que te di no te alcanzo
Em                                  C
mañana puede que vuelvas a buscarme
D                      Em
no estoy seguro de poder decir que no

--------------------------------------------

C
y hoy me encuentro de madugrada
G
escribiendo esta cancion
C                         D           (Dsus)
quisas algun dia nos volvamos a encontrar
Em         C
y todo sera
Em         C
y todo sera
D        (Dsus-D-Dsus)
como ayer

---------------------------------------------
Punteo: (G-B-C-G-D)


|-------------------------------------|
|------------------------------8-8/10-|
|-----7-9-9-9h7---7--------7-9--------|
|-7-9-----------9------7-9------------|
|--------------------9----------------|
|-------------------------------------|

|--------------------------------|
|-8h7-8-7------------------------|
|---------9-7--7-(9v)--9h7---7---|
|-------------9-----------9---(9)|
|--------------------------------|
|--------------------------------|


|------------------------------7-7/15-|
|-----------------------------8-------|
|------7-9-9h7---77--------7-9--------|
|--7-9---------9----------9-----------|
|-------------------------------------|
|-------------------------------------|

|14-12------/15-15-14-12------|
|------(12)-------------(12)--|
|-----------------------------|
|-----------------------------|
|-----------------------------|
|-----------------------------|


|------------------------------------|
|/(12)--12-13-15-13-12---------------|
|----------------------14-12-11-(12)-|
|------------------------------------|
|------------------------------------|
|------------------------------------|


|-------------------------------------|
|-------------------------------------|
|--14-12-11-9----7-9-9h7--7-------7---|
|--------------9--------9--9----9--9--|
|-------------------------------------|
|-------------------------------------|


|-------------------|
|-------10-8-7-(8)--|
|---7-9-------------|
|-9-----------------|
|-------------------|
|-------------------|


-------------------------------------------

G
Voy a sumar
B7
otra derrota a mi historial
C            C-G       D (D-Dsus-Dsus2-D)
que fue injusta


G
tengo fe
B7
que a la victoria volvere
C            C-G       D (D-Dsus-Dsus2-D)
como ayer


-------------------------------------------
Em

|-----------(0)----------(0)----------|
|-----------(0)----------(0)----------|
|-----9-----(0)----------(0)------9---|
|-7-9---9---(2)----------(2)--7-9---9-|
|-----------(2)----------(2)----------|
|-----------(0)---(3)(2)-(0)----------|

|(0)---------(0)---------(0)-------|
|(0)---------(0)---------(0)-------|
|(0)---------(0)---------(0)-------|
|(2)---------(2)---------(2)-------|
|(2)---------(2)---------(2)-------|
|(0)--(3)(2)-(0)--(3)(2)-(0)-------|


|------------(0)------------(0)-|
|------------(0)------------(0)-|
|------------(0)------------(0)-|
|------------(2)------------(2)-|
|------------(2)------------(2)-|
|---(3)(2)-0-(0)---(3)(2)-0-(0)-|

|-----------(0)------------(0)--------------(0)|
|-----------(0)------------(0)--------------(0)|
|-----------(0)------------(0)-4b-2---------(0)|
|-----------(2)------------(2)-----4-2------(2)|
|-----------(2)------------(2)--------4-2---(2)|
|--(3)(2)-0-(0)---(3)(2)-0-(0)--------------(0)|


espero que se entienda
esto de subir 75 caracteres te hace
partir todo al medio es una cagada
Suggest correction
Give kudos to tab author, rate the tab!
1 2 3 4 5
comments
print report bad tab
guest
You may want to rate the tab now too:
select rating
Wanna post a correction for this tab? Suggest correction