Oops, an error
Loading. Please wait.

El Pibe De La Via Tab

11 views 1 this week
no commentswrite comment
1 2 3 4 5
3 more votes to show rating
add to favorites
launch autoscroll
font size
0
reset
how to read this tab
guitar tuner
×
Best way to learn
"El Pibe De La Via"
Autoscroll
slow
fast
+/-
esc
set tempo
stop
Nota:
... : hacer una pausa
()  : levantar o bajar según lo indique el N° que esta dentro del
      paréntesis
/   : slide

Intro:

1)-----------------------------|-----------------------------|
2)-----------------------------|-----------------------------|
3)-----------------------------|-----------------------------|
4)-----6-8-6-8-6-8-6-8-6-8-6-8-|-----6-8-6-8-6-8-6-8-6-8-6-8-|
5)-6-6?4-4-4-4-4-4-4-4-4-4-4-4-|-6-6-4-4-4-4-4-4-4-4-4-4-4-4-|
6)-4-4-------------------------|-4-4-------------------------|

1)------------------------------------|-------------------|
2)-------------8(10)-8(10)...6--------|-8p6---------------|
3)-3/4--6...-6------------------6.....|-?--8-6-6...-3...--|
4)------------------------------------|-------------------|
5)------------------------------------|-------------------|
6)------------------------------------|-------------------|


C#5           riff 1                   RIFF 1
ahí viene el...                   1)-12-12-9...--|
C#5       riff 1                  2)-11-11-9...--|
Caminando                         3)-------------|
baja del tren                     4)-------------|
marchitado                        5)-------------|
nadie lo ve                       6)-------------|
es ignorado
se encuentra bien
abandonado

ESTRIBILLO                                 (+)   (*) estos son los acorde
(+)    (*)       c#5                     1)----|----| como no sabia como
es el pibe de la via                     2)----|----|se llamaban, lo puse
(+)         (*)       c#5                3)--6-|--8-|asi.
mangueando algo para comer               4)--4-|--6-|
(+)    (*)      c#5                      5)----|----|
es el pibe de la via                     6)----|----|
(+)     (*)         c#5
sin un cobre para volver

                                         riff 2
ahí viene él
ya es insultado                       -----------------|
en el alden                           ---8-8(10)-6-----|
acorralado                            -6-----------6...|
busca salida                          -----------------|
esta encerrado                        -----------------|
carga un herida                       -----------------|
              riff 2
esta sangrando


es el pib3 de la via...


PUNTEO

1)----------------|-4-4-------4-4---------------------------------------|
2)------------7-4-|-4-4---4---4-4---4-----------------------------------|
3)-4...-4-6---6-4-|-----6-4-6-----6-4-6---4-6(8)-4----4------4-7(9)-6-4-|
4)----------------|--------------------------------6-4?-6(4)------------|
5)----------------|-----------------------------------------------------|
6)----------------|-----------------------------------------------------|

1)-4-4---4-4---4...---4-4---|--------------------------------------------
2)-4-4---4-4---4...---4-4---|---------------------------4----4-7(9)-4----
3)-----6-----6-----6------6-|----4-6(8)-6-4-----4-6(8)-6-6(8)--------6...
4---------------------------|4-6------------6----------------------------
5)--------------------------|--------------------------------------------
6)--------------------------|--------------------------------------------

1)------------------------------7------------------------|---------------
2)------------------4...?-4-6(8)---6-4...----------------|---------------
3)4---4----4-6(8)-4----------------------6...-4------6...|6-4--------4...
4)--6---6---------------------------------------6-4-6----|---6-4?-4-6----
5)-------------------------------------------------------|-------6-------
6)-------------------------------------------------------|---------------

1)----------------------|
2)----------------------|
3)-4---4-6(8)-4---------|
4)---6----------6...----|
5)----------------------|
6)----------------------|

es el pibe de la via
mangueando algo para comer....


termina usando los acordes DEL ESTRIBILLO... hasta que terimine... la canción....


************************************************************************
BUENO ACA.. ESTA--- costo pero salio.... bueno cualquier duda.. 
o corrección hacer la a federnr_la25@

Ahh.. si saben... como se llaman.. los acordes.(+)(*). del estribillo 
por favor.. manden.. un mail diciéndome como se llaman.. se los agradezco..
¡¡¡¡Aguante la mocosa!!!!
Suggest correction
Give kudos to tab author, rate the tab!
1 2 3 4 5
comments
print report bad tab
guest
You may want to rate the tab now too:
select rating
Wanna post a correction for this tab? Suggest correction