Oops, an error
Loading. Please wait.

La Fiesta Va A Comenzar Tab

9 views 1 this week
no commentswrite comment
1 2 3 4 5
3 more votes to show rating
add to favorites
×
Save as Personal and add changes to this tab that will be seen only by you. Learn more ›
×
You can save this tab as Personal to edit and correct it or add notes. All changes will be seen only by you. Learn more »
save as personal
new!
launch autoscroll
font size
0
reset
how to read this tab
guitar tuner
Autoscroll
slow
fast
+/-
esc
set tempo
stop
NOTA:
/     : slide
p     :pull of
h     :hamer on
()    :levantar a cuerda según lo indique el N° que esta dentro del
       paréntesis,.
...   : pausa
***********************************************************************

INTRO:  RIFF 1 (X4)lEnto- e INTRO 2

INTRO:

  RIFF 1                        RIFF 2
1)-----------------|---|     |-3/-----5----3/-----5-|
2)-----------------|---|     |-3/5--5-5----3/5--5-5-|
3)-----------------|---|     |----------------------|
4)-1/2...--2-4-2-4-|-X4|     |----------------------|
5)-0-0...--0-0-0-0-|---|     |----------------------|
6)-----------------|---|     |----------------------|

INTRO 2
1)--------------|--------------|--------------|--------------|---|---|--|
2)--------------|--------------|--------------|--------------|---|---|--|
3)--------------|--------------|--------------|--------------|-2-|-4-|--|
4)1/2...-2-4-2-4|1/2...-2-4-2-4|1/2...-2-4-2-4|1/2...-2-4-2-4|-0-|-2-|2-|
5)0-0...-0-0-0-0|0-0...-0-0-0-0|0-0...-0-0-0-0|0-0...-0-0-0-0|---|---|0-|
6)--------------|--------------|--------------|--------------|---|---|--|

A5                        D5
Dia en el campo es muy vacio
A5                           D5
No consigo ni una gota de placer
A5                              D5
Mas tarde y pastillas son muy largas
A5                  E5         A5
Solo espero en la noche renacer

A5                            D5
El sol se va alejando en el oeste
A5                             D5
La radio esta calentando su motor
A5                                  D5
Entre copas y algún que otro gato mimoso
E5                     E5         A5
En la fiesta se va formando el r´n´r


(Ahora empieza pero mas rápido)

D5                      A5      A5  A5
Y los amigos van llegando
D5                       A5     A5 A5
Esa botella esta esperando
E5                      A5
La fiesta va a comenzar
E5                    A5
La fiesta va comenzar

1)4/-5-5-5-5-5-5-5-5-5----------------|5-----------5------5------5-------
2)4/-5-5-5-5-5-5-5-5-5----------------|5-----------5------5------5-------
3)---------------------7....--5-------|--7-5..-7(9)--7(9)---7(9)---7-5(3)
4)------------------------------7-9...|----------------------------------
5)------------------------------------|----------------------------------
6)------------------------------------|----------------------------------

1)----------|
2)----------|
3)----------|
4)-4-5-7...-|
5)----------|
6)----------|

1)----------------15(17)(17)(17)-------------|-----------------------|
2)-16(18)...-16(18)--------------16(18)-13...|-13-15--15(15)(15)--13-|
3)-------------------------------------------|-----------------------|
4)-------------------------------------------|-----------------------|
5)-------------------------------------------|-----------------------|
6)-------------------------------------------|-----------------------|

1)-------------------------------|---------15------------------|
2)-16-15-13---16-15-13--16-15-13-|---16(18)--13...-13----------|
3)-------------------------------|--------------------12-15...-|
4)-------------------------------|-----------------------------|
5)-------------------------------|-----------------------------|
6)-------------------------------|-----------------------------|

A5                                       D5
Y ahora estoy sufriendo las consecuencias
A5                               D5
Mi cabeza esta a punto de estallar
A5                                 D5
Y todo lo que veo no se queda quieto
A5                  E5                A5
Ahora lo único que quiero es festejar


Y los amigos van llegando
Esa botella esta esperando
La fiesta va a comenzar
La fiesta va a comenzar

1)---12--12--12-----------|
2)13---13--13-------------|
3)--------------14-12-----|
4)--------------------14--|
5)------------------------|
6)------------------------|

******************************************************************
BUENO ACA.. ESTA COSTO PERO SALIO..  cualquier duda o correción hacerla
A federnr_la25@
Suggest correction
Give kudos to tab author, rate the tab!
1 2 3 4 5
comments
print report bad tab
guest
Wanna post a correction for this tab? Suggest correction