Oops, an error
Loading. Please wait.

La Reina De Mu Tab

version 1
version 1

Whole song

14 views 1 this week
no commentswrite comment
1 2 3 4 5
3 more votes to show rating
add to favorites
launch autoscroll
font size
0
reset
how to read this tab
guitar tuner
×
Best way to learn
"La Reina De Mu"
Autoscroll
slow
fast
+/-
esc
set tempo
stop
Bueno aca les traigo La reina de mu de la mocosa
Temaso.


Intro:RIff

e|---------------------------|--------5-7-5-7-------|
B|---------------------------|--------5-7-5-7-------|
G|--4--2------------2--------|4--2------------------|
D|-------4--0--2--4---2--4---|-----4----------------|  X4
A|---------------------------|----------------------|
E|---------------------------|----------------------|

F#5                      B5
Tierra perdida y la sana ignorancia
F#5                   B5
que gobernaba y nadie sospechaba
F#5                  B5
similitudes entre los caminos
F#5                     B5    C#5
pero el destino otra cosa deparaba

RIff

F#5                B5
Era el orgullo de su padre
F#5                        B5
que con su andar hacia q todo brillara
F#5                  B5
fragil, austera, lider soberbio
F#5                   B5    C#5
y con sus ojos a su pueblo criaba

                   F#5 B5
Pues, la reina de mu
            F#5 B5             F#5 B5
la reina de mu, la reina de mu
               F#5 B5
la reina de mu

Solo de guitarra

Aca va el bajo
                           F#5
Todo todo depende de nos
Todo todo depende de nos
                           F#5
Todo todo depende de nos
Todo todo depende de nos...


Un dia negro se sintio el temblor
y un cruel torrente la jornada arruino
toda la polis quedo sepultada
                            C#5
dentro de poco vamos a visitarla

                   F#5 B5
Pues, la reina de mu
            F#5 B5             F#5 B5
la reina de mu, la reina de mu


e|---------------------------|--------5-7-5-7-------|
B|---------------------------|--------5-7-5-7-------|
G|--4--2------------2--------|4--2------------------|
D|-------4--0--2--4---2--4---|-----4----------------|
A|---------------------------|----------------------|
E|---------------------------|----------------------|

e|---------------------------|----------------------|
B|---------------------------|----------------------|
G|--4--2------------2--------|4--2--4--2------------|
D|-------4--0--2--4----2--4--|-----4-----4---2-4-2-4|
A|---------------------------|----------------------|
E|---------------------------|----------------------|

Espero qe les salga
Suggest correction
Give kudos to tab author, rate the tab!
1 2 3 4 5
comments
print report bad tab
guest
You may want to rate the tab now too:
select rating
Wanna post a correction for this tab? Suggest correction