Oops, an error
Loading. Please wait.

Lo Mejor En Este Show Tab

5 views 1 this week
no commentswrite comment
1 2 3 4 5
3 more votes to show rating
add to favorites
launch autoscroll
font size
0
reset
how to read this tab
guitar tuner
×
Best way to learn
"Lo Mejor En Este Show"
Autoscroll
slow
fast
+/-
esc
set tempo
stop
(B)

|---------------------------|-----------------------------|
|---------------------------|-----------------------------|
|-----------------9--(7)-7-7|------------------9--7-------|
|-9-9-9-9-9--7-9--9--(7)-7-7|--9-9-9-9-9--7-9--9--7-7/(9)-|
|-9-9-9-9-9--7-9------------|--9-9-9-9-9--7-9-------7/(9)-|
|---------------------------|-----------------------------|


|----------------|
|--7x-----7x-----|
|--7x-----7x-----|
|-----(9)----(9)-|
|-----(9)----(9)-|
|----------------|


                   |-----------------|
                   |-----------------|
                   |-9br-7--7--------|
                   |------9---(9v)---|
                   |-----------------|
                   |-----------------|

------------------------------------------------------------

B                              A-B
Me siento extraño en este mundo
                               A-B
solias decirme casi sin pensar
                               A-B
las cosas simples no valen nada
                               A-B
tu estrella renuncio a iluminar


-------------------------------------------------------------
(B)
|-----------------------------5/7-7-7-7--5/7-7-7-7|
|--7--7-----------------------5/7-7-7-7--5/7-7-7-7|
|--9b-9b-9h7------9h7-----------------------------|
|------------(9)------7h(9)-----------------------|
|-------------------------------------------------|
|-------------------------------------------------|

|----------------|
|--7x-----7x-----|
|--7x-----7x-----|
|-----(9)----(9)-|
|-----(9)----(9)-|
|----------------|

|-----------------|
|-----------------|
|--9-9h7--7-------|
|--------9--(9v)--|
|-----------------|

------------------------------------------------------------


B                              A-B
tus ojos van brillando al alba
B                              A-B
estan borracho por la sal de mar
B                              A-B
deseas no haber nadado tanto
B                              A-B
cruzas la orilla y no volver jamas

-------------------------------------------------------------

D         E                B
ellas son lo mejor en este show
D         E                B
ellas son lo mejor en este show

    D          E         B
|--------------------------------------|
|--------------------------------------|
|-7-7-7-7---9-9-9-9--------------------|
|-7-7-7-7---9-9-9-9--9-9-7/9-9-9-7/9---|
|-5-5-5-5---7-7-7-7--9-9-7/9-9-9-7/9---|
|--------------------7-7-----7-7-------|


----------------------------------------------------------------------


|-----------------------------5/7-7-7-7--5/7-7-7-7-|
|--7--7-----------------------5/7-7-7-7--5/7-7-7-7-|
|--9b-9b-9h7------9h7------------------------------|
|------------(9)------7h(9)------------------------|
|--------------------------------------------------|
|--------------------------------------------------|

-----------------|
-----------------|
--9-9h7--7-------|
--------9--(9v)--|
-----------------|
-----------------|


|-5/7-7-7-7--5/7-7-7-7-5/7-7-7-7--5/7-7-7-7----------|
|-5/7-7-7-7--5/7-7-7-7-5/7-7-7-7--5/7-7-7-7----------|
|-------------------------------------------9b--7----|
|----------------------------------------------9-9---|
|----------------------------------------------------|
|----------------------------------------------------|

------------------|
------------------|
------------------|
-9h7-9-7--9-...---|
---------9--------|
------------------|


--------------------------------------------------------

(B)

|---------------------------|-----------------------------|
|---------------------------|-----------------------------|
|-----------------9--(7)-7-7|------------------9--7-------|
|-9-9-9-9-9--7-9--9--(7)-7-7|--9-9-9-9-9--7-9--9--7-7/(9)-|
|-9-9-9-9-9--7-9------------|--9-9-9-9-9--7-9-------7/(9)-|
|---------------------------|-----------------------------|

|----------------|
|--7x-----7x-----|
|--7x-----7x-----|
|-----(9)----(9)-|
|-----(9)----(9)-|
|----------------|


--------------------------------------------------------
B                              A-B
Mi corazon esta en pedazos
B                              A-B
dejaste solo que se marchitara
B                              A-B
ese sudor de madrugada
B                              A-B
es lo que no te deja respirar

|--------------|
|-2x-4x-2x-----|
|----------4x--| (Sobre el verso)
|--------------|
|--------------|
|--------------|


----------------------------------------------------------------------

D         E                B
Es que no encuentro tranquilidad
D         E                B
Cuando la fiebre empieza a elevar

    D          E         B
|--------------------------------------|
|--------------------------------------|
|-7-7-7-7---9-9-9-9--------------------|
|-7-7-7-7---9-9-9-9--9-9-7/9-9-9-7/9---|
|-5-5-5-5---7-7-7-7--9-9-7/9-9-9-7/9---|
|--------------------7-7-----7-7-------|


--------------------------------------------------------


|-12-12-10-9-7-|
|-12-12-10-9-7-|
|--------------|
|--------------|
|--------------|
|--------------|
B-B-B-B-(B)-(B)-(B)

--------------------------------------------------------
D         E                B
ellas son lo mejor en este show
D         E                B
ellas son lo mejor en este show

|-------------------|
|-------------------|
|-------------------|
|-------------------|
|-------------------|
|--9-10-9-7---------|

ellas son lo mejor (C#-D-C#-D-(B))
Suggest correction
Give kudos to tab author, rate the tab!
1 2 3 4 5
comments
print report bad tab
guest
You may want to rate the tab now too:
select rating
Wanna post a correction for this tab? Suggest correction