Oops, an error
Loading. Please wait.

Mucho Mejor Tab

version 1
version 1

Whole song

22 views 1 this week
no commentswrite comment
1 2 3 4 5
3 more votes to show rating
add to favorites
launch autoscroll
font size
0
reset
how to read this tab
guitar tuner
Autoscroll
slow
fast
+/-
esc
set tempo
stop
Help us to improve Ultimate-Guitar.com Take our survey!
×
NOTA:
/   : slide
... : hacer una pausa
()  : levantar o bajar según lo indique el N° que esta dentro del
      paréntesis
h   : hamer om

EL RIFF 1: lo hace en toda..la primera estofa.....

INTRO:
                                       RIFF 1
1)-7-7-7-7-7?-5-3-|7-7-7-7-7?-5-3-|-------8--------8--------8--------8--|
2)-6-6-6-6-6?-4-3-|6-6-6-6-6?-4-3-|------8-8------8-8------8-8------8-8-|
3)----------------|---------------|--8/9------8/9------8/9------8/9-----|
4)----------------|---------------|-------------------------------------|
5)----------------|---------------|-------------------------------------|
6)----------------|---------------|-------------------------------------|

C5
Por las calles me paseo como un perro no lo puedo dejar.     C5  (+) (*)
C5                                       (*)               1)---|---|---|
La vida me dejo hace tiempo en este lugar.                 2)---|---|---|
C5                                                   (+)   3)---|-5-|-7-|
Las manchas me perduran no se como me las voy a sanar.     4)-5-|-3-|-5-|
C5               (*)                C5                     5)-3-|---|---|
Yo voy por esta senda, no puedo cambiar.                   6)---|---|---|

(+)                                       C5     RIFF 1
Yo solamente quiero vivir en éste Rock n? Roll.
(+)                                                C5   RIFF 1
Es realmente lo que me estimula para estar muy bien.
(+)                                           C5    RIFF 1
Muy lejos ya estoy de todo, no me van a seguir.
(*)                   C5   RIFF 1
Acá, encontré mi lugar.


PUNTEO1

1)-----------------|---------|---------|----------|---------|-----------|
2)-----------------|---------|---------|----------|---------|-----------|
3)----------8-10...|10-8-----|--8-10...|10-8------|--8-10...|10-8-------|
4)10...?-10--------|----10...|10-------|-----10...|10-------|----10...--|
5)-----------------|---------|---------|----------|---------|-----------|
6)-----------------|---------|---------|----------|---------|-----------|

1)-----------|------------|
2)-----------|------8...--|
3)----8-10...|-8-10-------|
4)-10--------|------------|
5)-----------|------------|
6)-----------|------------|

C5
En mi casa los problemas familiares nunca van a faltar .
C5                                           (*)
Nunca creyeron en lo que yo les podía brindar.
C5                                                      (+)
Ahora yo encontre mi estilo y no creo que lo pueda dejar.
C5                 (*)                   C5
El camino es muy largo, me voy a arriesgar.


(+)                                           C5 RIFF 1
Yo solamente quiero vivir en éste Rock n? Roll.
(+)                                               C5 RIFF 1
Es realmente lo que me estimula para estar muy bien.
(+)                                           C5  RIFF 1
Muy lejos ya estoy de todo, no me van a seguir.
(*)                   C5  RIFF 1
Acá, encontré mi lugar.

C5  (+)   C5

PUNTEO 2

           (+)          C5         (+)
1)------|-----------|----------|-------------------------------
2)------|-----------|----------|-------------------11----------
3)------|------10...|----------|------10...-?10(12)---10-8-----
4)-10...|-8-10------|-8-9-10...|-9-10----------------------10--
5)------|-----------|----------|-------------------------------
6)------|-----------|----------|-------------------------------

C5                                  (+)
Con todo esto, yo me siento mucho mejor.
C5                            (+)
Son raras notas que me seducen.
C5               (+)            (*)  C5
Esto es Rock n? Roll, Rock n? Roll. Rock and roll

C5   (+)   C5   (+)   C5   (+)  (*)


1)---------------|---|
2)---------------|---|
3)---------------|---|
4)-----3-5P3---3-|-5-|
5)-3-5-------5---|-3-|
6)---------------|---|

*************************************************************************
aca.. esta? costó .. pero salio... cualquier duda o corrección hacerla a 
fedekpo_sf150@ ,
si alguien sabe como se llama... lo acordes (*)(+),, por favor manden un
 mail... diciendo como se llama.. bueno.. gracias

aguante... ¡¡¡¡¡¡¡¡¡la mocosa.!!!!!!!!
Suggest correction
Give kudos to tab author, rate the tab!
1 2 3 4 5
comments
print report bad tab
guest
You may want to rate the tab now too:
select rating
Wanna post a correction for this tab? Suggest correction