Oops, an error
Loading. Please wait.

Mucho Mejor Tab

version 2
version 2

Whole song

34 views 1 this week
no commentswrite comment
1 2 3 4 5
3 more votes to show rating
add to favorites
launch autoscroll
font size
0
reset
how to read this tab
guitar tuner
×
Best way to learn
"Mucho Mejor"
Autoscroll
slow
fast
+/-
esc
set tempo
stop
Hola gente soy francisco y les dejo este tema de la mocosa
L transcripcion anterior no tenia bien los punteos y la intro
pero los acordes estaban bien..asiq le correji eso nada mas..
cualquier pregunta q me quieran hacer o si no entienden algo
fran082@


Intro:
1. |------------------------|
2. |---9--9--9--9--8--------|
3. |--10-10-10-10--8--------|x3
4. |-----------------8-10---|
5. |------------------------|
6. |------------------------|

riff: 2. |---------| Lo repite varias veces a esto..fijense
      3. |-8s9s8---|

Estos acordes hacelos asi:
   ([ch]F) (G[/ch])
 1)|---|---|
 2)|-5-|-8-|
 3)|-5-|-7-|
 4)|-3-|-5-|
 5)|---|---|
 6)|---|---|

C
Por las calles me paseo como un perro no lo puedo dejar.
C                                      (G)
La vida me dejo hace tiempo en este lugar.
C                                                   ([ch]F[/ch])
Las manchas me perduran no se como me las voy a sanar.
C               (G)                C
Yo voy por esta senda, no puedo cambiar.

([ch]F)                                       C[/ch]
Yo solamente quiero vivir en éste Rock n? Roll.
([ch]F)                                                C[/ch]
Es realmente lo que me estimula para estar muy bien.
([ch]F)                                           C[/ch]
Muy lejos ya estoy de todo, no me van a seguir.
(G)                   C
Acá, encontré mi lugar.


Punteo:

1)-----------------|-----------|-----------|----------|
2)-----------------|-----------|-----------|----------|
3)-----8s9s10------|-----------|-8s9s10----|----------|
4)10---------------|--8s9s10---|-----------|--8s9s10--|
5)-----------------|-----------|-----------|----------|
6)-----------------|-----------|-----------|----------|

1)|---------|---------|--------------------|
2)|---------|---------|--------------------|
3)|-8s9s10--|---------|--8s9s10---10s11s12-|
4)|---------|--8s9s10-|--------------------|
5)|---------|---------|--------------------|
6)|---------|---------|--------------------|


1)-----------------------|
2)-----------------------|
3)--8s9s10----10s11s12---|
4)-----------------------|
5)-----------------------|
6)-----------------------|

C
En mi casa los problemas familiares nunca van a faltar .
C                                           (G)
Nunca creyeron en lo que yo les podía brindar.
C                                                      ([ch]F[/ch])
Ahora yo encontre mi estilo y no creo que lo pueda dejar.
C                 (G)                   C
El camino es muy largo, me voy a arriesgar.


([ch]F)                                           C[/ch]
Yo solamente quiero vivir en éste Rock n? Roll.
([ch]F)                                               C[/ch]
Es realmente lo que me estimula para estar muy bien.
([ch]F)                                           C[/ch]
Muy lejos ya estoy de todo, no me van a seguir.
(G)                   C
Acá, encontré mi lugar.

C5  (+)   C5

PUNTEO 2

           ([ch]F)         C         (FA[/ch])
1)------|-----------|----------|--------------------------------|
2)------|-----------|----------|--------------11----------------|
3)------|--8s9s10---|----------|-8s9s10----10v--10--10s8--------|
4)-10...|-----------|-8s9s10---|-------------------------10s8-10|
5)------|-----------|----------|--------------------------------|
6)------|-----------|----------|--------------------------------|

C                                  ([ch]F[/ch])
Con todo esto, yo me siento mucho mejor.
C                            ([ch]F[/ch])
Son raras notas que me seducen.
C               ([ch]F)         (G)       C[/ch]
Esto es Rock n? Roll, Rock n? Roll. Rock and roll

C   ([ch]F) C   (FA) C   (FA)  (G[/ch])


1)---------------|---|
2)---------------|---|
3)---------------|---|
4)-----3-5P3---3-|-5-|
5)-3-5-------5---|-3-|
6)---------------|---|

Aguante la Mocosa!!
Suggest correction
Give kudos to tab author, rate the tab!
1 2 3 4 5
comments
print report bad tab
guest
You may want to rate the tab now too:
select rating
Wanna post a correction for this tab? Suggest correction