Oops, an error
Loading. Please wait.

Nuevo Cielo Tab

10 views 1 this week
no commentswrite comment
1 2 3 4 5
3 more votes to show rating
add to favorites
launch autoscroll
font size
0
reset
how to read this tab
guitar tuner
×
Best way to learn
"Nuevo Cielo"
Autoscroll
slow
fast
+/-
esc
set tempo
stop
e|-4-----2-------1--------
B|---------2-4^----1-3-1^-
G|-----4------------------
D|---4--------------------


Intro:

e|-----------------------------------|
B|-----6-----4-----6-----4-----4-6^--|
G|-5-5---5-5---5-5---5-5---5-5-------|

e|-------------------------------|
B|-----6-----4------------4-6^---| X4
G|-5-5---5-5---5-5-6^-3^---------|

F
Cuando la mente clickea
los dientes rechinan
       Bb            F
y el frio se vuelve sudor
tu cuerpo se queja
el sueño se aleja
        Bb            F
y el grito rompe tu tambor

Intro X2

[ch]A[/ch] cordura presenta
papel de la quiebra
y patea contra la moral
las nubes opacan
un viento que alarma
anunciando una tempestad
        Intro
nuevo cielo...
        Intro
nuevo cielo...

G-F X4
uuuuuh uuuuh uuuuuuuh

Solo: F - Bb

Poderoso el misterio que riega un
costado donde solo crece calor
un golpe arrebata la sien en la lata
ya nadie oira tu sermon en verdad
nuevo cielo...
nuevo cielo...

********Ayrton25********
Aguante varela
Suggest correction
Give kudos to tab author, rate the tab!
1 2 3 4 5
comments
print report bad tab
guest
You may want to rate the tab now too:
select rating
Wanna post a correction for this tab? Suggest correction