Oops, an error
Loading. Please wait.

Oidos Sordos Bass Tab

15 views 1 this week
no commentswrite comment
1 2 3 4 5
3 more votes to show rating
add to favorites
launch autoscroll
font size
0
reset
guitar tuner
Autoscroll
slow
fast
+/-
esc
set tempo
stop
intro

            G
-------------------------------
-------------------------------
-------------------------------
-------3x------------------------


            riff 1


             G
--------------------------------
-------------------3/5-5-------- x2
-------2-4-2-------------5-5----
---3-3-------3-3----------------


             C                          G
------------------------------------------------------------
-------2---2-------2-----------------------------3/5-5------
---3-3---3---3-3-3---3-3------------2-4-2--------------5-5--
--------------------------------3-3-------3-3---------------


         G                            G
-----------------------------------------------------
-------------------3/5-5-----------------------------
-------2-4-2-------------5-5--------2-4-2-----22-33-44
---3-3-------3-3----------------3-3-------3-3--------


     D      C            G
------------------------------------------------
------------------------------------------------
---5-5-5---3-3-3-------2-4-2------22-33-44-----
-------------------3-3-------3-3---------------


                   riff 2


             C                          G
-----------------------------------------------------
-------2---2-------2---------------------------------
---3-3---3---3-3-3---3-3------------2-4-2-----22-33-44  x3
--------------------------------3-3-------3-3---------


     D      C            G
------------------------------------------------
------------------------------------------------
---5-5-5---3-3-3-------2-4-2------22-33-44-----
-------------------3-3-------3-3---------------


           riff 1


             G
--------------------------------
-------------------3/5-5-------- x2
-------2-4-2-------------5-5----
---3-3-------3-3----------------


             C                          G
-----------------------------------------------------
-------2---2-------2---------------------------------
---3-3---3---3-3-3---3-3------------2-4-2-----22-33-44
--------------------------------3-3-------3-3---------


         G                            G
-----------------------------------------------------
-------------------3/5-5-----------------------------
-------2-4-2-------------5-5--------2-4-2-----22-33-44
---3-3-------3-3----------------3-3-------3-3--------


     D      C            G
------------------------------------------------
------------------------------------------------
---5-5-5---3-3-3-------2-4-2------22-33-44-----
-------------------3-3-------3-3---------------


             riff 3


        E                         G
------------------------------------------------------
------6---6-------6------------2-4-2------22-33-44----
--7-7---7---7-7-7---7-7----3-3-------3-3--------------
------------------------------------------------------

        E                         D
----------------------------------------------------
------6---6-------6-------------4---4-------4-------
--7-7---7---7-7-7---7-7-----5-5---5---5-5-5---5-5---
----------------------------------------------------

          C                          G
------------------------------------------------------
-------2---2-------2----------------------------------
---3-3---3---3-3-3---3-3----------2-3-2-----22-33-44--
-------------------------------3-3------3-3-----------


                   D
-----------------------------------------------------
-----------------------------------------------------
-----5-5-5-5-5-5-5-5-5-5-5-5-5-5-5-5-5---------------
-----------------------------------------------------


                   riff 2


             C                          G
-----------------------------------------------------
-------2---2-------2---------------------------------
---3-3---3---3-3-3---3-3------------2-4-2-----22-33-44  x3
--------------------------------3-3-------3-3---------


     D      C            G
--------------------------------------------
------------------------------------------
---5-5-5---3-3-3-------2-4-2------22-33-44-- x2
-------------------3-3-------3-3------------


seria


1ro riff 1
2do riff 2
3ro riff 1
4to riff 3
5to riff 2
Suggest correction
Give kudos to tab author, rate the tab!
1 2 3 4 5
comments
print report bad tab
guest
You may want to rate the tab now too:
select rating
Wanna post a correction for this tab? Suggest correction