Oops, an error
Loading. Please wait.

Rock De La Mosca Tab

11 views 1 this week
no commentswrite comment
1 2 3 4 5
3 more votes to show rating
add to favorites
launch autoscroll
font size
0
reset
how to read this tab
guitar tuner
Autoscroll
slow
fast
+/-
esc
set tempo
stop
Help us to improve Ultimate-Guitar.com Take our survey!
×
Nota:
... : hacer una pausa
()  : levantar o bajar según lo indique el N° que esta dentro del paréntesis
*************************************************************************

B5 A5
     Hoy toda la noche no me pude dormir
     Con esa puta mosca ya no puedo seguir
E5 D5
     La puerta esta cerrada no la puedo abrir
B5 A5
     Capas como un vampiro yo tenga que vivir
D5 E5                                            A5
     Encerrado en esta 4 paredes no voy aguantar


A5
Estoy probando todo no la puedo sacar
Ahora esta paseando por toda mi placar
D5
Las luces están apagadas y no para de zumbar
A5
Yo me pregunto cuanto mas va a durar
E5                   D5               A5
Esto se tornando muy largo ya amanecerá

E5     D5                    A5
Ah...ah  ya no puedo aguantar
Ah...ah  ya no puedo aguantar
E5                                   D5                 A5
Y si me sigue molestando yo con mi mano lo voy a aplastar

Punteo

1)-----------------------7-10(12)-10(12)-10(12)-7----|---7-10(12)-10(12)-
2)--7-9...-9-7--------7-9------------------------9...|7-9----------------
3)9------------9...-9--------------------------------|-------------------
4)---------------------------------------------------|-------------------
5)---------------------------------------------------|-------------------
6)---------------------------------------------------|-------------------

1)-10(12)-7----|----------------|---------------------------|
2)---------9...|-9-7-9...-------|-9-7-9-7--9(11)-7----------|
3)-------------|----------9-7---|-9-7-9-7----------9-7------|
4)-------------|--------------9-|---------------------9...--|
5)-------------|----------------|---------------------------|
6)-------------|----------------|---------------------------|

1)----------------------------------------------------|-----------------|
2)-11-9-11-11-9-11-11-9----11-9-11-9-11-9-11-9--------|-----------------|
3)-10-9-10-10-9-10-10-9----10-9-10-9-10-9-10-9---9...-|9-7...----7-9(11)|
4)----------------------------------------------------|-------7-9-------|
5)----------------------------------------------------|-----------------|
6)----------------------------------------------------|-----------------|

1)--------------------7(9)--12(14)-11-9---------|
2)-------------9(11)-9------------------11-9(7)-|
3)9(11)-7---------------------------------------|
4)--------9-------------------------------------|
5)----------------------------------------------|
6)----------------------------------------------|

pase toda la  noche no pude dormir
con es puta mosca ya no puedo seguir
la puerta esta cerrrada no la puedo abrir
quizás como un vampiro tenga que vivir
Encerrado en esta 4 paredes no voy aguantar


Ah...ah  ya no puedo aguantar
Ah...ah  ya no puedo aguantar
Y si me sigue molestando yo con mi mano lo voy a aplastar

  A5  D5  E5  B5
1)---|---|---|---|
2)---|---|---|---|
3)---|---|---|---|
4)---|-7-|-9-|---|
5)-7-|-5-|-7-|-9-|
6)-5-|---|---|-7-|
*********************************************************************
BUENO... ACA ESTA.. .COSTO PERO ESTA... CUALQUIER DUDA. O CORRECCION
HACERLO a federnr_la25@

aguante la mocosa loco,...
Suggest correction
Give kudos to tab author, rate the tab!
1 2 3 4 5
comments
print report bad tab
guest
You may want to rate the tab now too:
select rating
Wanna post a correction for this tab? Suggest correction